Oops, an error
Loading. Please wait.

Seek And Destroy Tab

ver5
75,455 views 9 this week
10 commentsread comments
1 2 3 4 5
accurate
x 5
Autoscroll
+/-
esc
set tempo
stop
Contributor
WARNING: You are trying to view
                                    content from Ultimate-Guitar.com
                                    in an unauthorized application,
                                    which is prohibited.

                                    Please use an official Ultimate
                                    Guitar Tabs application for iPhone,
                                    iPad or Android to access legitimate
                                    chords, guitar, bass, and drum tabs
                                    from Ultimate-Guitar.com database.

                                    Type "ultimate guitar tabs" in Apple
                                    App Store's or Android Market's
                                    search to find the application.
----------------------------------------------------------------------------
                             SEEK AND DESTROY - METALLICA
----------------------------------------------------------------------------

                              

Tabbed by:Double A2the Ron
Email:ibfly789@yahoo.com

Tuning: Regular 
              

          Riff 1                                Riff 2
e|------------------------------------|----------------------------------|
B|------------------------------------|----------------------------------|
G|-----7h8-7--------------------5-----|--9-7---7-------------------------|
D|------------7h8-7---------5-----7---|------9---9-8-7-5-----------------|
A|-0-0------0--------0-8-7----7-------|----------------------------------|
E|------------------------------------|----------------------------------|
          Repeat 8 Times                        After 8th time play this

          Riff 3                                Riff 4
e|-----------------------------------|------------------------------------|
B|-----------------------------------|------------------------------------|
G|-----------------------------------|------------------------------------|
D|--------5--7--5--7-----------------|-------------------------------5----|
A|--------5--7--5--7----------7-5----|---------------------------------7--|
E|0-0-0-0-------------0-0-0-0-----7-6|0-0-0-0-0-0-0-0-0-0-0-0----7-6------|
          Repeat 8 Times                        Repeat 8 Times

          Riff 5                                               Riff 6
e|-------------------------------------------------------|----------------|
B|-------------------------------------------------------|----------------|
G|-------------------------------------------------------|7-5-----0-------|
D|5---------5s7--5---5---------5s7--5---5---------5s7--5-|----7-6-------0-|
A|5---------5s7--5---5---------5s7--5---5---------5s7--5-|----------7-6---|
E|3--0-0-0--3s5--3---3--0-0-0--3s5--3---3--0-0-0--3s5--3-|----------------|
          
          Riff 5                                               Riff 2
e|-------------------------------------------------------|----------------|
B|-------------------------------------------------------|----------------|
G|-------------------------------------------------------|-9-7---7--------|
D|5---------5s7--5---5---------5s7--5---5---------5s7--5-|-----9---9-8-7-5|
A|5---------5s7--5---5---------5s7--5---5---------5s7--5-|----------------|
E|3--0-0-0--3s5--3---3--0-0-0--3s5--3---3--0-0-0--3s5--3-|----------------|
                                                              Repeat 2 times
   += Let Ring      Riff 7          
e|------------------------------------------------------------------------|
B|------------------------------------------------------------------------|
G|--7++++++6++++++5+++----------------------------------------------------|
D|--5++++++4++++++3+++----------------------------------------------------|
A|------------------------------------------------------------------------|
E|---------------------0-0-0-0-0-0-0-0-0-0-0-0-0-0-0-0--------------------|
                             Repeat 4 times
             Riff 3
e|---------------------------------|--------------------------------------|
B|---------------------------------|--------------------------------------|
G|---------------------------------|--------------------------------------|
D|--------5--7--5-7----------------|--------------------------------5-----|
A|--------5--7--5-7---------7-5----|----------------------------------7---|
E|0-0-0-0-----------0-0-0-0-----7-6|0-0-0-0-0-0-0-0-0-0-0-0----7-6--------|
             
            Riff 5                                             Riff 6
e|-------------------------------------------------------|----------------|
B|-------------------------------------------------------|----------------|
G|-------------------------------------------------------|-7-5-----0------|
D|5---------5s7--5---5---------5s7--5---5---------5s7--5-|-----7-6-------0|
A|5---------5s7--5---5---------5s7--5---5---------5s7--5-|-----------7-6--|
E|3--0-0-0--3s5--3---3--0-0-0--3s5--3---3--0-0-0--3s5--3-|----------------|

            Riff 5                                             Riff 2
e|-------------------------------------------------------|----------------|
B|-------------------------------------------------------|----------------|
G|-------------------------------------------------------|-9-7---7--------|
D|5---------5s7--5---5---------5s7--5---5---------5s7--5-|-----9---9-8-7-5|
A|5---------5s7--5---5---------5s7--5---5---------5s7--5-|----------------|
E|3--0-0-0--3s5--3---3--0-0-0--3s5--3---3--0-0-0--3s5--3-|----------------|
                                                              Repeat 2 times
  
       += Let Ring      Riff 7                                RIff 8
e|---------------------------------------------------|--------------------|
B|---------------------------------------------------|--------------------|
G|--7++++6++++5+++-----------------------------------|7++++++6++++++5++++4|
D|--5++++4++++3+++-----------------------------------|5++++++4++++++3++++2|
A|---------------------------------------------------|--------------------|
E|--------------------0-0-0-0-0-0-0-0-0-0-0-0-0-0-0-0|--------------------|
        Repeat 3 times

e|----|-------------------------------------------------------------------|
B|----|-------------------------------------------------------------------|
G|-4--|---------------------------5-----------4---------------------------|
D|-4--|---------------5-----7-----5-----7-----4-----7---------------------|
A|----|-----------------0-0---0-0---0-0---0-0---0-0---0-0-------8-7-5-----|
E|----|---------------------------------------------------8-7-5-------8-5~|

           Riff 7
e|------------------------------------------------------------------------|
B|------------------------------------------------------------------------|
G|--7++++++6++++++5+++----------------------------------------------------|
D|--5++++++4++++++3+++----------------------------------------------------|
A|------------------------------------------------------------------------|
E|------------------------------------------------------------------------|

e|--------12--15h12--12-15h12-17h12-15h12--12-15h12-17h12-----------------|
B|12-/-15----------12--------------------15-------------------------------|
G|------------------------------------------------------------------------|
D|------------------------------------------------------------------------|
A|------------------------------------------------------------------------|
E|------------------------------------------------------------------------|

                     
e|15h12----12----12-------------|-----------------------------------------|
B|------15----15----15----------|-15----------15--------------------------|
G|------------------------------|-----------------------------------------|
D|------------------------------|-----------------------------------------|
A|------------------------------|-----------------------------------------|
E|------------------------------|-----------------------------------------|

                       
e|7---7-10-7----7-7-------------------------------------------------------|
B|-----------10-------10h7-10h7-------------------------------------------|
G|------------------------------9-----------------------------------------|
D|------------------------------------------------------------------------|
A|------------------------------------------------------------------------|
E|------------------------------------------------------------------------|

        
e|--------------------------------|---------------------------------------|
B|--------------------------------|---------------------------------------|
G|7---7---9----9h7----------------|---------------------------------------|
D|--9-----------------9---9-------|---9-----------------------------------|
A|--------------------------------|---------------------------------------|
E|--------------------------------|---------------------------------------|

                 
                     IM not too sure if this part is right
e|-------------|-17------------15-14-13-----------------------------------|
B|-------------|--------------14--------14--------------------------------|
G|-------------|------------15--------------------------------------------|
D|9------------|----------------------------------------------------------|
A|-------------|----------------------------------------------------------|
E|-------------|----------------------------------------------------------|

           
e|------------------------------|-----------------------------------------|
B|15--------14----15------------|-15---15---------------------------------|
G|---16-------------------------|-----------------------------------------|
D|------17----------------------|-----------------------------------------|
A|------------------------------|-----------------------------------------|
E|------------------------------|-----------------------------------------|

 
e|----21-20-23-20-26-22-19-19-20-21-17-15-19-16-14-14-17------------------|
B|-23---------------------------------------------------------------------|
G|------------------------------------------------------------------------|
D|------------------------------------------------------------------------|
A|------------------------------------------------------------------------|
E|------------------------------------------------------------------------|

e|14-12-16-12-11-14-12--11-9--7-10h7-----7-10h7---------------------------|
B|-------------------------------------10--------10-7---------------------|
G|------------------------------------------------------------------------|
D|------------------------------------------------------------------------|
A|------------------------------------------------------------------------|
E|------------------------------------------------------------------------|


e|-----------------------------|------------------------------------------|
B|10h7----------7--------------|------------------------------------------|
G|-----9--7--9-----9--9----9h7-|-9--7---7--7------------------------------|
D|-----------------------------|------9-----------------------------------|
A|-----------------------------|------------------------------------------|
E|-----------------------------|--------------------5--5------------------|

        
e|----------------------------|-------------------------------------------|
B|----------------------------|-------------------------------------------|
G|----------------------------|-7--9--9----9h7--9-------------------------|
D|-----------7--9h7-----7h9-9-|-------------------------------------------|
A|--5---/-9---------9---------|-------------------------------------------|
E|7---------------------------|-------------------------------------------|

      
e|------------------------------------------------------------------------|
B|-----------------------7--10h7------------------------------------------|
G|7---7--------7--9--9------------9--7------------------------------------|
D|-------------9--------------------------9-------------------------------|
A|------------------------------------------------------------------------|
E|------------------------------------------------------------------------|

    
e|------------------------------------------------------------------------|
B|---------------------------------12-------------------------------------|
G|7---9-------9h7---9---------/-14----------------------------------------|
D|------------------------------------------------------------------------|
A|------------------------------------------------------------------------|
E|------------------------------------------------------------------------|

e|-----/12-------------------/12------------------------------------------|
B|15---------15h12----12--15-----15h12-12-15------------------------------|
G|-----------------14-----------------------------------------------------|
D|------------------------------------------------------------------------|
A|------------------------------------------------------------------------|
E|------------------------------------------------------------------------|

   
e|--/-12--------------/-12--12-|-15h12------------------------------------|
B|15------15h12-15--15----15---|------15-12--12-15h12---------------------|
G|-----------------------------|-----------14--------14-12----------------|
D|-----------------------------|------------------------------------------|
A|-----------------------------|------------------------------------------|
E|-----------------------------|------------------------------------------|

         
e|------------------------------------------------------------------------|
B|------------------------------------------------------------------------|
G|--12-14^12--------------------------------------------------------------|
D|14--------14-12---------------------------------------------------------|
A|---------------14-12----------------12----------------------------------|
E|--------------------15----------15--------------------------------------|


e|------------------------------------------------------------------------|
B|------------------------------------------------------------------------|
G|---------------------------12----12-------------------------------------|
D|---------12----12-14-12-14----14----------------------------------------|
A|14-12-14----14----------------------------------------------------------|
E|------------------------------------------------------------------------|

e|--------------------------12----12--------------------------------------|
B|------------12----12-15-12-15----15-------------------------------------|
G|-----14-12-14---14------------------------------------------------------|
D|------------------------------------------------------------------------|
A|------------------------------------------------------------------------|
E|------------------------------------------------------------------------|

                               
  
e|15h12------------------------|------------------------------------------|
B|-----15-12-\-12-15h12--------|------------------------------------------|
G|---------------------14-12-\-|------------------------------------------|
D|-----------------------------|------------------------------------------|
A|-----------------------------|-------8-7-5------------------------------|
E|-----------------------------|-8-7-5-------8-5--------------------------|

e|-----------------------|------------------------------------------------|
B|-----------------------|------------------------------------------------|
G|-----------------------|---2--------------------------------------------|
D|-----------------------|---2--------------------------------------------|
A|------8-7-5------------|---0--------------------------------------------|
E|8-7-5------8-5---------|------------------------------------------------|

Repeat song...except solo

Riff 1 x8 RIff 2
Riff 3 x8
Riff 4 x8
Riff 5 RIff 6
RIff 5 Riff 2 x2
RIff 7 x4

e|------------------------------------------------------------------------|
B|------------------------------------------------------------------------|
G|-------------------------------7-6-----6-5-----5-4----------------------|
D|-------------------------------5-4-----4-3-----3-2----------------------|  
A|------------------------------------------------------------------------|
E|0-0-0-0-0-0-0-0-0-0-0-0-0-0--------0-0-----0-0--------------------------|

e|------------------------------------------------------------------------| 
B|------------------------------------------------------------------------|
G|----------------7-6-----6---------4-------------------------------------|
D|----------------5-4-----4-7-----7-2-------------------------------------|
A|--------------------------5-----5---------------------------------------|
E|0-0-0-0-0-0---------0-0-----0-0-----------------------------------------|

e|------------------------------------------------------------------------|
B|------------------------------------------------------------------------|
G|-------------------------------7-6-----6-5-----5-4----------------------|
D|-------------------------------5-4-----4-3-----3-2----------------------|  
A|------------------------------------------------------------------------|
E|0-0-0-0-0-0-0-0-0-0-0-0-0-0--------0-0-----0-0--------------------------|

e|------------------------------------------------------------------------| 
B|------------------------------------------------------------------------|
G|----------------7-6-----6---------4-------------------------------------|
D|----------------5-4-----4-7-----7-2-------------------------------------|
A|--------------------------5-----5---------------------------------------|
E|0-0-0-0-0-0---------0-0-----0-0-----------------------------------------|

e|------------------------------------------------------------------------|
B|------------------------------------------------------------------------|
G|-------------------------------7-6-----6-5-----5-4----------------------|
D|-------------------------------5-4-----4-3-----3-2----------------------|  
A|------------------------------------------------------------------------|
E|0-0-0-0-0-0-0-0-0-0-0-0-0-0--------0-0-----0-0--------------------------|

e|------------------------------------------------------------------------| 
B|------------------------------------------------------------------------|
G|----------------7-6-----6---------4-------------------------------------|
D|----------------5-4-----4-7-----7-2-------------------------------------|
A|--------------------------5-----5---------------------------------------|
E|0-0-0-0-0-0---------0-0-----0-0-----------------------------------------|

e|------------------------------------------------------------------------|
B|------------------------------------------------------------------------|
G|-------------------------------7-6-----6-5-----5-4----------------------|
D|-------------------------------5-4-----4-3-----3-2----------------------|  
A|------------------------------------------------------------------------|
E|0-0-0-0-0-0-0-0-0-0-0-0-0-0--------0-0-----0-0--------------------------|

e|------------------------------------------------------------------------| 
B|------------------------------------------------------------------------|
G|----------------7-6-----6---------4-------------------------------------|
D|----------------5-4-----4-7-----7-2-------------------------------------|
A|--------------------------5-----5---------------------------------------|
E|0-0-0-0-0-0---------0-0-----0-0-----------------------------------------|

e|------------------------------------------------------------------------|
B|------------------------------------------------------------------------|
G|------------------------------------------------------------------------|
D|------------------------------------------------------------------------|
A|------------7/----------------------------------------------------------|
E|0-0-0-0-0-0-------------------------------------------------------------|
                                                    RIff 2
e|---------------------------------|-------|-------------------|---------0|
B|---------------------------------|-------|-------------------|---------0|
G|---------------------------------|-------|---7-9---7---------|---------0|
D|----5-----2-----5-----4-----7s5--|-------|-------9---9-8-7-5-|---------0|
A|----5-----2-----5-----4-----7s5--|-------|-------------------|---------0|
E|0-0-3-0-0-0-0-0-3-0-0-0-0-0-5s3--|--0-0--|-------------------|-0-0-0-0-0|
                                                 Repeat 3x
| /  slide up
| \  slide down
| h  hammer-on
| p  pull-off
| ~  vibrato
| +  harmonic/Let Ring
| x  Mute note
comments
print report bad tab
10 comments total. Showing first comments.
0 reply
guitarplayer789 wrote on January 13 2005, 12:00 am

The first part is wrong, I need to fix it, its 0 8 7!!

0 reply
guitarplayer789 wrote on January 13 2005, 12:00 am

I tabbed this song, ummm, theres a big mistake i found, the 7 and 8 are backwards, sry abe


E|-------------------------------------|-----------------|
B|-------------------------------------|-----------------|
G|------7h8---------------------5------|--9-7---7--------|
D|-------------7h8----------5-----7----|------9---9-8-7-5|
A|--0-0-----0--------0-8-7----7--------|-----------------|
E|-------------------------------------|-----------------|

0 reply
guitarplayer789 wrote on January 13 2005, 12:00 am

sry about the mix up*

I want to post or [tab]
guest
You may want to rate the tab now too:
select rating
Please do not post tabs as comments. Select "correction" instead!