Oops, an error
Loading. Please wait.

Seek And Destroy Tab

ver6
36,041 views 60 this week
11 commentsread comments
1 2 3 4 5
accurate
x 23
add to favorites launch autoscroll
font size
0
reset
Autoscroll
+/-
esc
set tempo
stop
WARNING: You are trying to view
                                    content from Ultimate-Guitar.com
                                    in an unauthorized application,
                                    which is prohibited.

                                    Please use an official Ultimate
                                    Guitar Tabs application for iPhone,
                                    iPad or Android to access legitimate
                                    chords, guitar, bass, and drum tabs
                                    from Ultimate-Guitar.com database.

                                    Type "ultimate guitar tabs" in Apple
                                    App Store's or Android Market's
                                    search to find the application.
Artist: Metallica
Song: Seek And Destroy

This tab is pretty accurate. The only thing I'm not sure about is the solo. I know there
are some bends in it at some points. Sorry but you'll have to figure those out yourself.

Tab Key
--------------------------------------
H   = Hammer-On
P   = Pull Off
(#) = Sustained Note

Gtr I (E A D G B E) - 'James'
Gtr II (E A D G B E) - 'Kirk'
Gtr III (E A D G B E) - 'Kirk(Solo)'


  Q=140
 4/4
  Gtrs I, II
  E E S S E +E  E S S E   +E  E E E  E E  E E
|-----------------------|---------------------|
|-----------------------|---------------------|
|-----7h8p7-(7)---------|---------------------|
|-----------------7h8p7-|-(7)------------10-7-|
|-0-0-----------0-------|-----0-8-7-10-7------|
|-----------------------|---------------------|


  E E S S E +E  E S S E   +E  E E E  E E  E E
|-----------------------|----------------------|
|-----------------------|----------------------|
|-----7h8p7-(7)---------|----------------------|
|-----------------7h8p7-|-(7)------------10-7--|
|-0-0-----------0-------|-----0-8-7-10-7-------|
|-----------------------|----------------------|


  E E S S E +E  E S S E   +E  E E E  E E  E E
|-----------------------|---------------------|
|-----------------------|---------------------|
|-----7h8p7-(7)---------|---------------------|
|-----------------7h8p7-|-(7)------------10-7-|
|-0-0-----------0-------|-----0-8-7-10-7------|
|-----------------------|---------------------|


  E E S S E +E  E S S E   +E  E E E  E E  E E
|-----------------------|---------------------|
|-----------------------|---------------------|
|-----7h8p7-(7)---------|---------------------|
|-----------------7h8p7-|-(7)------------10-7-|
|-0-0-----------0-------|-----0-8-7-10-7------|
|-----------------------|---------------------|


  E E S S E +E  E S S E   +E  E E E  E E  E E
|-----------------------|---------------------|
|-----------------------|---------------------|
|-----7h8p7-(7)---------|---------------------|
|-----------------7h8p7-|-(7)------------10-7-|
|-0-0-----------0-------|-----0-8-7-10-7------|
|-----------------------|---------------------|


  E E S S E +E  E S S E   +E  E E E  E E  E E
|-----------------------|---------------------|
|-----------------------|---------------------|
|-----7h8p7-(7)---------|---------------------|
|-----------------7h8p7-|-(7)------------10-7-|
|-0-0-----------0-------|-----0-8-7-10-7------|
|-----------------------|---------------------|


  E E S S E +E  E S S E   +E  E E E  E E  E E
|-----------------------|---------------------|
|-----------------------|---------------------|
|-----7h8p7-(7)---------|---------------------|
|-----------------7h8p7-|-(7)------------10-7-|
|-0-0-----------0-------|-----0-8-7-10-7------|
|-----------------------|---------------------|


  E E S S E +E  E S S E   +E  E E E  E E  E E
|-----------------------|---------------------|
|-----------------------|---------------------|
|-----7h8p7-(7)---------|---------------------|
|-----------------7h8p7-|-(7)------------10-7-|
|-0-0-----------0-------|-----0-8-7-10-7------|
|-----------------------|---------------------|


                    Gtr I
                    PM----|           PM----|           PM----|
  E E E E E E E E   E E E E E E E E   E E E E E E E E   E E E E E E E E
|-----------------|-----------------|-----------------|-----------------|
|-----------------|-----------------|-----------------|-----------------|
|-9-7---7---------|---------0-2-0-2-|-----------------|---------0-2-0-2-|
|-----9---9-8-7-5-|---------0-2-0-2-|-----------------|---------0-2-0-2-|
|-----------------|-----------------|---------7-5-----|-----------------|
|-----------------|-0-0-0-0---------|-0-0-0-0-----7-6-|-0-0-0-0---------|


  Gtrs I, II
  PM----|           PM----|           PM----|           PM----|
  E E E E E E E E   E E E E E E E E   E E E E E E E E   E E E E E E E E
|-----------------|-----------------|-----------------|-----------------|
|-----------------|-----------------|-----------------|-----------------|
|-----------------|---------0-2-0-2-|-----------------|---------0-2-0-2-|
|-----------------|---------0-2-0-2-|-----------------|---------0-2-0-2-|
|---------7-5-----|-----------------|---------7-5-----|-----------------|
|-0-0-0-0-----7-6-|-0-0-0-0---------|-0-0-0-0-----7-6-|-0-0-0-0---------|


  PM----|           PM----|           PM----|           PM----|
  E E E E E E E E   E E E E E E E E   E E E E E E E E   E E E E E E E E
|-----------------|-----------------|-----------------|-----------------|
|-----------------|-----------------|-----------------|-----------------|
|-----------------|---------0-2-0-2-|-----------------|---------0-2-0-2-|
|-----------------|---------0-2-0-2-|-----------------|---------0-2-0-2-|
|---------7-5-----|-----------------|---------7-5-----|-----------------|
|-0-0-0-0-----7-6-|-0-0-0-0---------|-0-0-0-0-----7-6-|-0-0-0-0---------|


  PM----|           PM----|           PM----|           PM----|
  E E E E E E E E   E E E E E E E E   E E E E E E E E   E E E E E E E E
|-----------------|-----------------|-----------------|-----------------|
|-----------------|-----------------|-----------------|-----------------|
|-----------------|---------0-2-0-2-|-----------------|---------0-2-0-2-|
|-----------------|---------0-2-0-2-|-----------------|---------0-2-0-2-|
|---------7-5-----|-----------------|---------7-5-----|-----------------|
|-0-0-0-0-----7-6-|-0-0-0-0---------|-0-0-0-0-----7-6-|-0-0-0-0---------|


  PM----|           PM-------------------------------------------------|
  E E E E E E E E   E E E E E E E E   E E E E E E  E E   E E E E E E E E
|-----------------|-----------------|------------------|-----------------|
|-----------------|-----------------|------------------|-----------------|
|-----------------|-----------------|------------------|-----------------|
|-----------------|-----------------|------------------|-----------------|
|---------7-5-----|-----------------|-------------10-7-|-----------------|
|-0-0-0-0-----7-6-|-0-0-0-0-0-0-0-0-|-0-0-0-0-7-6------|-0-0-0-0-0-0-0-0-|


  PM--------------------------------------------------------------------|
  E E E E E E  E E   E E E E E E E E   E E E E E E  E E   E E E E E E E E
|------------------|-----------------|------------------|-----------------|
|------------------|-----------------|------------------|-----------------|
|------------------|-----------------|------------------|-----------------|
|------------------|-----------------|------------------|-----------------|
|-------------10-7-|-----------------|-------------10-7-|-----------------|
|-0-0-0-0-7-6------|-0-0-0-0-0-0-0-0-|-0-0-0-0-7-6------|-0-0-0-0-0-0-0-0-|


  PM--------------------------------------------------------------------|
  E E E E E E  E E   E E E E E E E E   E E E E E E  E E   E E E E E E E E
|------------------|-----------------|------------------|-----------------|
|------------------|-----------------|------------------|-----------------|
|------------------|-----------------|------------------|-----------------|
|------------------|-----------------|------------------|-----------------|
|-------------10-7-|-----------------|-------------10-7-|-----------------|
|-0-0-0-0-7-6------|-0-0-0-0-0-0-0-0-|-0-0-0-0-7-6------|-0-0-0-0-0-0-0-0-|


  PM--------------------------------------------------------------------|
  E E E E E E  E E   E E E E E E E E   E E E E E E  E E   E E E E E E E E
|------------------|-----------------|------------------|-----------------|
|------------------|-----------------|------------------|-----------------|
|------------------|-----------------|------------------|-----------------|
|------------------|-----------------|------------------|-----------------|
|-------------10-7-|-----------------|-------------10-7-|-----------------|
|-0-0-0-0-7-6------|-0-0-0-0-0-0-0-0-|-0-0-0-0-7-6------|-0-0-0-0-0-0-0-0-|


                       PM--|            PM--|            PM--|
  E E E E E E  E E   E E E E E E Q    E E E E E E Q    E E E E E E Q
|------------------|----------------|----------------|----------------|
|------------------|----------------|----------------|----------------|
|------------------|-5-------5-7-5--|-5-------5-7-5--|-5-------5-7-5--|
|------------------|-5-------5-7-5--|-5-------5-7-5--|-5-------5-7-5--|
|-------------10-7-|----------------|----------------|----------------|
|-0-0-0-0-7-6------|---0-0-0--------|---0-0-0--------|---0-0-0--------|


                      PM--|            PM--|            PM--|
  E E E E E E E E   E E E E E E Q    E E E E E E Q    E E E E E E Q
|-----------------|----------------|----------------|----------------|
|-----------------|----------------|----------------|----------------|
|-7-5-------------|-5-------5-7-5--|-5-------5-7-5--|-5-------5-7-5--|
|-----7-6-5-------|-5-------5-7-5--|-5-------5-7-5--|-5-------5-7-5--|
|-----------7-6-5-|----------------|----------------|----------------|
|-----------------|---0-0-0--------|---0-0-0--------|---0-0-0--------|


  E E E E E E E E   E E E E E E E E   W          H    H
|-----------------|-----------------|----------|-----------|
|-----------------|-----------------|----------|-----------|
|-9-7---7---------|-9-7---7---------|-7--------|-6----5----|
|-----9---9-8-7-5-|-----9---9-8-7-5-|-5--------|-4----3----|
|-----------------|-----------------|----------|-----------|
|-----------------|-----------------|----------|-----------|


  PM------------------------------|
  E E E E E E E E   E E E E E E E E   W          H    H
|-----------------|-----------------|----------|-----------|
|-----------------|-----------------|----------|-----------|
|-----------------|-----------------|-7--------|-6----5----|
|-----------------|-----------------|-5--------|-4----3----|
|-----------------|-----------------|----------|-----------|
|-0-0-0-0-0-0-0-0-|-0-0-0-0-0-0-0-0-|----------|-----------|


  PM------------------------------|
  E E E E E E E E   E E E E E E E E   W          H    H
|-----------------|-----------------|----------|-----------|
|-----------------|-----------------|----------|-----------|
|-----------------|-----------------|-7--------|-6----5----|
|-----------------|-----------------|-5--------|-4----3----|
|-----------------|-----------------|----------|-----------|
|-0-0-0-0-0-0-0-0-|-0-0-0-0-0-0-0-0-|----------|-----------|


  PM------------------------------|
  E E E E E E E E   E E E E E E E E   W          H    H
|-----------------|-----------------|----------|-----------|
|-----------------|-----------------|----------|-----------|
|-----------------|-----------------|-7--------|-6----5----|
|-----------------|-----------------|-5--------|-4----3----|
|-----------------|-----------------|----------|-----------|
|-0-0-0-0-0-0-0-0-|-0-0-0-0-0-0-0-0-|----------|-----------|


  PM----|           PM----|           PM----|           PM----|
  E E E E E E E E   E E E E E E E E   E E E E E E E E   E E E E E E E E
|-----------------|-----------------|-----------------|-----------------|
|-----------------|-----------------|-----------------|-----------------|
|---------0-2-0-2-|-----------------|---------0-2-0-2-|-----------------|
|---------0-2-0-2-|-----------------|---------0-2-0-2-|-----------------|
|-----------------|---------7-5-----|-----------------|---------7-5-----|
|-0-0-0-0---------|-0-0-0-0-----7-6-|-0-0-0-0---------|-0-0-0-0-----7-6-|


  PM----|           PM----|           PM----|           PM----|
  E E E E E E E E   E E E E E E E E   E E E E E E E E   E E E E E E E E
|-----------------|-----------------|-----------------|-----------------|
|-----------------|-----------------|-----------------|-----------------|
|---------0-2-0-2-|-----------------|---------0-2-0-2-|-----------------|
|---------0-2-0-2-|-----------------|---------0-2-0-2-|-----------------|
|-----------------|---------7-5-----|-----------------|---------7-5-----|
|-0-0-0-0---------|-0-0-0-0-----7-6-|-0-0-0-0---------|-0-0-0-0-----7-6-|


  PM--------------------------------------------------------------------|
  E E E E E E E E   E E E E E E  E E   E E E E E E E E   E E E E E E  E E
|-----------------|------------------|-----------------|------------------|
|-----------------|------------------|-----------------|------------------|
|-----------------|------------------|-----------------|------------------|
|-----------------|------------------|-----------------|------------------|
|-----------------|-------------10-7-|-----------------|-------------10-7-|
|-0-0-0-0-0-0-0-0-|-0-0-0-0-7-6------|-0-0-0-0-0-0-0-0-|-0-0-0-0-7-6------|


  PM--------------------------------------------------------------------|
  E E E E E E E E   E E E E E E  E E   E E E E E E E E   E E E E E E  E E
|-----------------|------------------|-----------------|------------------|
|-----------------|------------------|-----------------|------------------|
|-----------------|------------------|-----------------|------------------|
|-----------------|------------------|-----------------|------------------|
|-----------------|-------------10-7-|-----------------|-------------10-7-|
|-0-0-0-0-0-0-0-0-|-0-0-0-0-7-6------|-0-0-0-0-0-0-0-0-|-0-0-0-0-7-6------|


    PM--|            PM--|            PM--|
  E E E E E E Q    E E E E E E Q    E E E E E E Q    E E E E E E E E
|----------------|----------------|----------------|-----------------|
|----------------|----------------|----------------|-----------------|
|-5-------5-7-5--|-5-------5-7-5--|-5-------5-7-5--|-7-5-------------|
|-5-------5-7-5--|-5-------5-7-5--|-5-------5-7-5--|-----7-6-5-------|
|----------------|----------------|----------------|-----------7-6-5-|
|---0-0-0--------|---0-0-0--------|---0-0-0--------|-----------------|


    PM--|            PM--|            PM--|
  E E E E E E Q    E E E E E E Q    E E E E E E Q    E E E E E E E E
|----------------|----------------|----------------|-----------------|
|----------------|----------------|----------------|-----------------|
|-5-------5-7-5--|-5-------5-7-5--|-5-------5-7-5--|-9-7---7---------|
|-5-------5-7-5--|-5-------5-7-5--|-5-------5-7-5--|-----9---9-8-7-5-|
|----------------|----------------|----------------|-----------------|
|---0-0-0--------|---0-0-0--------|---0-0-0--------|-----------------|


                                           PM------------|
  E E E E E E E E   W          H    H      E E E E E E E E
|-----------------|----------|-----------|-----------------|
|-----------------|----------|-----------|-----------------|
|-9-7---7---------|-7--------|-6----5----|-----------------|
|-----9---9-8-7-5-|-5--------|-4----3----|-----------------|
|-----------------|----------|-----------|-----------------|
|-----------------|----------|-----------|-0-0-0-0-0-0-0-0-|


  PM------------|                          PM------------|
  E E E E E E E E   W          H    H      E E E E E E E E
|-----------------|----------|-----------|-----------------|
|-----------------|----------|-----------|-----------------|
|-----------------|-7--------|-6----5----|-----------------|
|-----------------|-5--------|-4----3----|-----------------|
|-----------------|----------|-----------|-----------------|
|-0-0-0-0-0-0-0-0-|----------|-----------|-0-0-0-0-0-0-0-0-|


  PM------------|                          PM------------|
  E E E E E E E E   W          H    H      E E E E E E E E
|-----------------|----------|-----------|-----------------|
|-----------------|----------|-----------|-----------------|
|-----------------|-7--------|-6----5----|-----------------|
|-----------------|-5--------|-4----3----|-----------------|
|-----------------|----------|-----------|-----------------|
|-0-0-0-0-0-0-0-0-|----------|-----------|-0-0-0-0-0-0-0-0-|


  PM------------|
  E E E E E E E E   W          H    H
|-----------------|----------|-----------|----|
|-----------------|----------|-----------|----|
|-----------------|-7--------|-6----5----|----|
|-----------------|-5--------|-4----3----|----|
|-----------------|----------|-----------|----|
|-0-0-0-0-0-0-0-0-|----------|-----------|----|



  E E E E E E E E    E E E E E E E E   E E E E E E Q    E E E E E E E E
|-----------------|------------------|----------------|-----------------|
|-----------------|------------------|----------------|-----------------|
|-----------------|------------------|----------------|-----------------|
|-5-7---7-----7---|-10-----7-----7---|-9-----7-----7--|-------3-2-0-----|
|-0-0-0---0-0---0-|-10-0-0---0-0---0-|-9-0-0---0-0----|-3-2-0-------3-0-|
|-----------------|------------------|----------------|-----------------|


  E E E E E E E E    E E E E E E E E   E E E E E E Q    E E E E E E E E
|-----------------|------------------|----------------|-----------------|
|-----------------|------------------|----------------|-----------------|
|-----------------|------------------|----------------|-----------------|
|-5-----7-----7---|-10-----7-----7---|-9-----7-----7--|-------3-2-0-----|
|---0-0---0-0---0-|-10-0-0---0-0---0-|-9-0-0---0-0----|-3-2-0-------3-0-|
|-----------------|------------------|----------------|-----------------|


  E E E E E E E E    E E E E E E E E   E E E E E E Q    E E E E E E E E
|-----------------|------------------|----------------|-----------------|
|-----------------|------------------|----------------|-----------------|
|-----------------|------------------|----------------|-----------------|
|-5-----7-----7---|-10-----7-----7---|-9-----7-----7--|-------3-2-0-----|
|---0-0---0-0---0-|-10-0-0---0-0---0-|-9-0-0---0-0----|-3-2-0-------3-0-|
|-----------------|------------------|----------------|-----------------|


  E E E E E E E E    E E E E E E E E   E E E E E E Q    E E E E E E E E
|-----------------|------------------|----------------|-----------------|
|-----------------|------------------|----------------|-----------------|
|-----------------|------------------|----------------|-----------------|
|-5-----7-----7---|-10-----7-----7---|-9-----7-----7--|-------3-2-0-----|
|---0-0---0-0---0-|-10-0-0---0-0---0-|-9-0-0---0-0----|-3-2-0-------3-0-|
|-----------------|------------------|----------------|-----------------|


                                PM--------------------------------------|
  W          H    H             E    E     E     E     E     E     E     E
|----------|-----------------|-------------------------------------------------|
|----------|-----------------|-------------------------------------------------|
|-7--------|-6----5----------|-------------------------------------------------|
|-5--------|-4----3----------|-------------------------------------------------|
|----------|-----------------|-------------------------------------------------|
|----------|-----------------|--0----0-----0-----0-----0-----0-----0-----0-----|
|
| Gtr III
| W          H    E E  S  E.    S  S S  S  S  S  S  S  S  S  S  S  S  S  S  S
|----------|--------7h10h12--|-15-12-7-12-15-12-17-12-15-12-10-12-15-12-17-12--|
|----------|-----------------|-------------------------------------------------|
|----------|-----------------|-------------------------------------------------|
|----------|-----------------|-------------------------------------------------|
|----------|-----------------|-------------------------------------------------|
|----------|-----------------|-------------------------------------------------|


   PM-----------------------|
   E     E  E  E  E  E   E  E     W
|-----------------------------|--------------|
|-----------------------------|--------------|
|-----------------------------|---7----------|
|-----------------------------|---5----------|
|-----------------------------|--------------|
|--0-----0--0--0--0--0---0--0-|--------------|
|
|  S  S  E  E  E  E  E  +Q       +H.      Q
|-15-12p10h12p10h12p10-(10)---|-(10)---------|
|-----------------------------|--------------|
|-----------------------------|--------------|
|-----------------------------|--------------|
|-----------------------------|--------------|
|-----------------------------|--------------|


              PM------------------------|
  H    H      E  E    E   E   E E   E   E
|-----------|-----------------------------|
|-----------|-----------------------------|
|-6----5----|-----------------------------|
|-4----3----|-----------------------------|
|-----------|-----------------------------|
|-----------|-0--0----0---0---0-0---0---0-|
|
| W           E.   S  S S S S E S S S S E
|-----------|-7----7h10p7-5-7-7-5-2-5-2-0-|
|-----------|-----------------------------|
|-----------|-----------------------------|
|-----------|-----------------------------|
|-----------|-----------------------------|
|-----------|-----------------------------|


  PM------------------|                             PM-------------------|
  E E E E  E    E  E  E    W           H    H       E  E E E     E  E  E  E
|-----------------------|------------|-----------|----------------------------|
|-----------------------|------------|-----------|----------------------------|
|-----------------------|--7---------|-6----5----|----------------------------|
|-----------------------|--5---------|-4----3----|----------------------------|
|-----------------------|------------|-----------|----------------------------|
|-0-0-0-0--0----0--0--0-|------------|-----------|--0--0-0-0-----0--0--0--0---|
|
| E E E E +S  S E +Q      +W           W            Q.     S  S  E  E  E  E
|-------0-(0)-----------|------------|-----------|-17------6h10h16-15-14-10---|
|-3-0-3-------3p0-(0)---|-(0)--------|-----------|----------------------------|
|-----------------------|------------|-----------|----------------------------|
|-----------------------|------------|-----------|----------------------------|
|-----------------------|------------|-----------|----------------------------|
|-----------------------|------------|-----------|----------------------------|


  PM----------------|
  E E E  E   E  E E E     W                 H    H
|---------------------|-------------------|------------------|
|---------------------|-------------------|------------------|
|---------------------|---7---------------|-6----5-----------|
|---------------------|---5---------------|-4----3-----------|
|---------------------|-------------------|------------------|
|-0-0-0--0---0--0-0-0-|-------------------|------------------|
|
| E E E  E  +H           +H      +E  E Q    H    Q   E  S  S
|-9-7---10-(10)-------|-(10)----(10)------|---------18-20-20-|
|-----8---------------|-------------------|------------------|
|---------------------|-------------------|------------------|
|---------------------|-------------------|------------------|
|---------------------|-------------------|------------------|
|---------------------|-------------------|------------------|


   E     E     E     E     E     E     E     E
|-------------------------------------------------|
|-------------------------------------------------|
|-------------------------------------------------|
|-------------------------------------------------|
|--5-----7-----------7-----------------7----------|
|--------------0-----------0-----0-----------0----|
|
|  S  S  S  S  S  S  S  S  S  S  S  S  S  S  S  S
|-23p20-18h22-------21-21-------19----------17----|
|-------------24-24-------22p20----21-19-19----19-|
|-------------------------------------------------|
|-------------------------------------------------|
|-------------------------------------------------|
|-------------------------------------------------|


   E     E     E     E     E     E     E     E
|-------------------------------------------------|
|-------------------------------------------------|
|-------------------------------------------------|
|--5----------------------------------------------|
|--5-----------------7-----------------7----------|
|--------0-----0-----------0-----0-----------0----|
|
|  S  S  S  S  S  S  S  S  S  S  S  S  S  S  S  S
|-------------------------10----------10----------|
|-21-------19-17-16-14-12----12p10h12----12p10----|
|----21p20-------------------------------------11-|
|-------------------------------------------------|
|-------------------------------------------------|
|-------------------------------------------------|


   E    E E E E E Q      E E E E  E  E E E
|----------------------|-------------------|
|----------------------|-------------------|
|----------------------|-------------------|
|----------------------|-------------------|
|--9--------7-----7----|-------3--2--0-----|
|--9----0-0---0-0------|-3-2-0---------3-0-|
|
|  S  S E E E E E E. S   E E E E +Q    E E
|----------------------|-------------------|
|-10--------5-7-5-5--3-|-5p3-0h3-(3)-------|
|----11p9p7------------|-------------------|
|----------------------|-------------------|
|----------------------|---------------0-0-|
|----------------------|-------------------|


  E E E E E   E E   E   E E E  E   E E  E  E
|---------------------|----------------------|
|---------------------|----------------------|
|---------------------|----------------------|
|---------------------|-5--------------------|
|-5-7---7-------7-----|-5------7--------7----|
|-----0---0---0-----0-|---0-0------0-0-----0-|
|
| E E E E S S E S S E   E E E.   S E E +E  E
|---------------------|----------------------|
|---------------------|-3-5-5----3h5p3-(3)---|
|-------2h4p2---2-4-4-|--------------------4-|
|---0-4-------4-------|----------------------|
|-2-------------------|----------------------|
|---------------------|----------------------|


  E E E E E   E Q     E E  E  E   E E E E
|-------------------|---------------------|
|-------------------|---------------------|
|-------------------|---------------------|
|-------------------|---------------------|
|-9-----7-------7---|---------3---2-0-----|
|-9-0-0---0---0-----|-3-2--0----------3-0-|
|
| E E E E S S E E E   E E +E.   S Q   E E
|---------5---------|-----------------5h7-|
|-3-5-5-7---7p5p3---|-3-5-(5)---3h5-------|
|-----------------4-|---------------------|
|-------------------|---------------------|
|-------------------|---------------------|
|-------------------|---------------------|


   E    E  E     E     E    E  E     E
|------------------------------------------|
|------------------------------------------|
|------------------------------------------|
|------------------------------------------|
|--5----7--------7-------------7-----------|
|----------0-----------0----0--------0-----|
|
|  S S  E  S  S  S  S  S S  E  S  S  S  S
|---------------------12---12p10-------10--|
|-17---17p15-------12------------12-12-----|
|------------16p14-------------------------|
|------------------------------------------|
|------------------------------------------|
|------------------------------------------|


   E    E  E     E  E    E  E  E    E    E     E    E     E    E    Q
|--------------------------------|-------------------------------------------|
|--------------------------------|-------------------------------------------|
|--------------------------------|-------------------------------------------|
|--5-----------------------------|-------------------------------------------|
|--5-------------7----------7----|--9---------------7---------------7--------|
|-------0--0--------0----0-----0-|--9----0-----0----------0----0-------------|
|
|  S S  E  S  S  E  S S  E  E  E    S  S S  S  S  S S  S  S  S S  S S S S S
|-12---12p10----10h12---12-10-12-|-15--------------------10------------------|
|------------12------------------|----17---15---------12----12---10p8-----8--|
|--------------------------------|------------16p14-------------------9------|
|--------------------------------|-------------------------------------------|
|--------------------------------|-------------------------------------------|
|--------------------------------|-------------------------------------------|


   E   E   E   E   E E E E   E   E   E   E   E   E   E   E
|--------------------------|---------------------------------|
|--------------------------|---------------------------------|
|--------------------------|---------------------------------|
|--------------------------|---------------------------------|
|--------------3---2-0-----|-5---7-------7-----------7-------|
|--3---2---0-----------3-0-|---------0-------0---0-------0---|
|
|  S S S S S S S S Q   E E   S S S S S S S S S S S S S S S S
|--------------------------|-------------------------3-----3-|
|-10p8---------------------|-----------------5p3---5---5-----|
|--------9p7---------------|---------7-----7-----------------|
|------------9---7p5---5h7-|-9p7---9---9---------------------|
|--------------------------|---------------------------------|
|--------------------------|---------------------------------|


  E   E   E   E    E    E     E    E       E    E     E    E     E    E     Q
|---------------------------------------|--------------------------------------|
|---------------------------------------|--------------------------------------|
|---------------------------------------|--------------------------------------|
|-5-------------------------------------|--------------------------------------|
|-5-----------7---------------7---------|--9---------------7----------------7--|
|-----0---0--------0----0----------0----|--9----0-----0----------0----0--------|
|
| S S S S S S S S  S  S S  S  S  S S  S    S  S S  S  S  S S  S  S  S S  S  Q
|-5p3---5h7p5---7h10------10h12p10---12-|-15-----------------------------------|
|--------------------12-----------------|----17---15------------15-------------|
|---------------------------------------|------------16p15---16----16---14p12--|
|---------------------------------------|--------------------------------------|
|---------------------------------------|--------------------------------------|
|---------------------------------------|--------------------------------------|


                                                  Q=140
   E E E E E E E E   E E E E E E E E   W          E E S S E +E  E S S E
|------------------|-----------------|----------|-------------------------|
|------------------|-----------------|----------|-------------------------|
|------------------|-----------------|-2--------|-----7h8p7-(7)-----------|
|------------------|-----------------|-2--------|-----------------7h8p7---|
|--------3-2-0-----|-------3-2-0-----|-0--------|-0-0-----------0---------|
|--3-2-0-------3-2-|-3-2-0-------3-2-|----------|-------------------------|
|
|  Q   Q   H         W                 W          W
|------------------|-----------------|----------|-------------------------|
|------------------|-----------------|----------|-------------------------|
|------------------|-----------------|----------|-------------------------|
|-14---------------|-----------------|----------|-------------------------|
|------------------|-----------------|----------|-------------------------|
|------------------|-----------------|----------|-------------------------|


  +E  E E E  E E  E E   E E S S E +E  E S S E
|---------------------|-----------------------|
|---------------------|-----------------------|
|---------------------|-----7h8p7-(7)---------|
|-(7)------------10-7-|-----------------7h8p7-|
|-----0-8-7-10-7------|-0-0-----------0-------|
|---------------------|-----------------------|


  +E  E E E  E E  E E   E E S S E +E  E S S E
|---------------------|-----------------------|
|---------------------|-----------------------|
|---------------------|-----7h8p7-(7)---------|
|-(7)------------10-7-|-----------------7h8p7-|
|-----0-8-7-10-7------|-0-0-----------0-------|
|---------------------|-----------------------|


  E E E E  E E  E E   E E S S E +E  E S S E
|-------------------|-----------------------|
|-------------------|-----------------------|
|-------------------|-----7h8p7-(7)---------|
|-7------------10-7-|-----------------7h8p7-|
|---0-8-7-10-7------|-0-0-----------0-------|
|-------------------|-----------------------|


  +E  E E E  E E  E E   E E S S E +E  E S S E
|---------------------|-----------------------|
|---------------------|-----------------------|
|---------------------|-----7h8p7-(7)---------|
|-(7)------------10-7-|-----------------7h8p7-|
|-----0-8-7-10-7------|-0-0-----------0-------|
|---------------------|-----------------------|


  E E E E  E E  E E   E E S S E +E  E S S E
|-------------------|-----------------------|
|-------------------|-----------------------|
|-------------------|-----7h8p7-(7)---------|
|-7------------10-7-|-----------------7h8p7-|
|---0-8-7-10-7------|-0-0-----------0-------|
|-------------------|-----------------------|


  +E  E E E  E E  E E   E E S S E +E  E S S E
|---------------------|-----------------------|
|---------------------|-----------------------|
|---------------------|-----7h8p7-(7)---------|
|-(7)------------10-7-|-----------------7h8p7-|
|-----0-8-7-10-7------|-0-0-----------0-------|
|---------------------|-----------------------|


  +E  E E E  E E  E E   E E S S E +E  E S S E
|---------------------|-----------------------|
|---------------------|-----------------------|
|---------------------|-----7h8p7-(7)---------|
|-(7)------------10-7-|-----------------7h8p7-|
|-----0-8-7-10-7------|-0-0-----------0-------|
|---------------------|-----------------------|


  E E E E  E E  E E   E E E E E E E E
|-------------------|-------------------|
|-------------------|-------------------|
|-------------------|-9-7---7-----------|
|-7------------10-7-|-----9---9-8-7-5---|
|---0-8-7-10-7------|-------------------|
|-------------------|-------------------|


  PM----|           PM----|           PM----|           PM----|
  E E E E E E E E   E E E E E E E E   E E E E E E E E   E E E E E E E E
|-----------------|-----------------|-----------------|-----------------|
|-----------------|-----------------|-----------------|-----------------|
|---------0-2-0-2-|-----------------|---------0-2-0-2-|-----------------|
|---------0-2-0-2-|-----------------|---------0-2-0-2-|-----------------|
|-----------------|---------7-5-----|-----------------|---------7-5-----|
|-0-0-0-0---------|-0-0-0-0-----7-6-|-0-0-0-0---------|-0-0-0-0-----7-6-|


  PM----|           PM----|           PM----|           PM----|
  E E E E E E E E   E E E E E E E E   E E E E E E E E   E E E E E E E E
|-----------------|-----------------|-----------------|-----------------|
|-----------------|-----------------|-----------------|-----------------|
|---------0-2-0-2-|-----------------|---------0-2-0-2-|-----------------|
|---------0-2-0-2-|-----------------|---------0-2-0-2-|-----------------|
|-----------------|---------7-5-----|-----------------|---------7-5-----|
|-0-0-0-0---------|-0-0-0-0-----7-6-|-0-0-0-0---------|-0-0-0-0-----7-6-|


  PM--------------------------------------------------------------------|
  E E E E E E E E   E E E E E E  E E   E E E E E E E E   E E E E E E  W E
|-----------------|------------------|-----------------|------------------|
|-----------------|------------------|-----------------|------------------|
|-----------------|------------------|-----------------|------------------|
|-----------------|------------------|-----------------|------------------|
|-----------------|-------------10-7-|-----------------|-------------10-7-|
|-0-0-0-0-0-0-0-0-|-0-0-0-0-7-6------|-0-0-0-0-0-0-0-0-|-0-0-0-0-7-6------|


  PM-----------------------------------------------------------------|
  E E E E E E E E   E E E E E E  E E   E E E E E E E E   E E E E E E  W E
|-----------------|------------------|-----------------|---------------------|
|-----------------|------------------|-----------------|---------------------|
|-----------------|------------------|-----------------|---------------------|
|-----------------|------------------|-----------------|---------------------|
|-----------------|-------------10-7-|-----------------|-------------10-7----|
|-0-0-0-0-0-0-0-0-|-0-0-0-0-7-6------|-0-0-0-0-0-0-0-0-|-0-0-0-0-7-6---------|


    PM--|            PM--|            PM--|
  E E E E E E Q    E E E E E E Q    E E E E E E Q    E E E E E E E E
|----------------|----------------|----------------|-----------------|
|----------------|----------------|----------------|-----------------|
|-5-------5-7-5--|-5-------5-7-5--|-5-------5-7-5--|-7-5-------------|
|-5-------5-7-5--|-5-------5-7-5--|-5-------5-7-5--|-----7-6-5-------|
|----------------|----------------|----------------|-----------7-6-5-|
|---0-0-0--------|---0-0-0--------|---0-0-0--------|-----------------|


    PM--|            PM--|            PM--|
  E E E E E E Q    E E E E E E Q    E E E E E E Q    E E E E E E E E
|----------------|----------------|----------------|-----------------|
|----------------|----------------|----------------|-----------------|
|-5-------5-7-5--|-5-------5-7-5--|-5-------5-7-5--|-9-7---7---------|
|-5-------5-7-5--|-5-------5-7-5--|-5-------5-7-5--|-----9---9-8-7-5-|
|----------------|----------------|----------------|-----------------|
|---0-0-0--------|---0-0-0--------|---0-0-0--------|-----------------|


                                           PM------------|
  E E E E E E E E   W          H    H      E E E E E E E E
|-----------------|----------|-----------|-----------------|
|-----------------|----------|-----------|-----------------|
|-9-7---7---------|-7--------|-6----5----|-----------------|
|-----9---9-8-7-5-|-5--------|-4----3----|-----------------|
|-----------------|----------|-----------|-----------------|
|-----------------|----------|-----------|-0-0-0-0-0-0-0-0-|


  PM------------|                          PM------------|
  E E E E E E E E   W          H    H      E E E E E E E E
|-----------------|----------|-----------|-----------------|
|-----------------|----------|-----------|-----------------|
|-----------------|-7--------|-6----5----|-----------------|
|-----------------|-5--------|-4----3----|-----------------|
|-----------------|----------|-----------|-----------------|
|-0-0-0-0-0-0-0-0-|----------|-----------|-0-0-0-0-0-0-0-0-|


  PM------------|                          PM------------|
  E E E E E E E E   W          H    H      E E E E E E E E
|-----------------|----------|-----------|-----------------|
|-----------------|----------|-----------|-----------------|
|-----------------|-7--------|-6----5----|-----------------|
|-----------------|-5--------|-4----3----|-----------------|
|-----------------|----------|-----------|-----------------|
|-0-0-0-0-0-0-0-0-|----------|-----------|-0-0-0-0-0-0-0-0-|


  PM------------|                          PM------------|
  E E E E E E E E   W          H    H      E E E E E E E E
|-----------------|----------|-----------|-----------------|
|-----------------|----------|-----------|-----------------|
|-----------------|-7--------|-6----5----|-----------------|
|-----------------|-5--------|-4----3----|-----------------|
|-----------------|----------|-----------|-----------------|
|-0-0-0-0-0-0-0-0-|----------|-----------|-0-0-0-0-0-0-0-0-|


  PM----------|       PM|     PM|       PM--------|       PM|     PM|
  E E E E E E E E   E E E E E E E E   E E E E E E E E   E E E E E E E E
|-----------------|-----------------|-----------------|-----------------|
|-----------------|-----------------|-----------------|-----------------|
|---------------7-|-6-----6-5-----5-|---------------7-|-6-----6---------|
|---------------5-|-4-----4-3-----3-|---------------5-|-4-----4-7-----7-|
|-----------------|-----------------|-2---------------|---------5-----5-|
|-0-0-0-0-0-0-0---|---0-0-----0-0---|-0-0-0-0-0-0-0---|---0-0-----0-0---|


    PM--------|       PM|     PM|       PM--------|       PM|     PM|
  E E E E E E E E   E E E E E E E E   E E E E E E E E   E E E E E E E E
|-----------------|-----------------|-----------------|-----------------|
|-----------------|-----------------|-----------------|-----------------|
|---------------7-|-6-----6-5-----5-|---------------7-|-6-----6---------|
|---------------5-|-4-----4-3-----3-|---------------5-|-4-----4-7-----7-|
|-2---------------|-----------------|-2---------------|---------5-----5-|
|-0-0-0-0-0-0-0---|---0-0-----0-0---|-0-0-0-0-0-0-0---|---0-0-----0-0---|


    PM--------|       PM|     PM|       PM--------|       PM|     PM|
  E E E E E E E E   E E E E E E E E   E E E E E E E E   E E E E E E E E
|-----------------|-----------------|-----------------|-----------------|
|-----------------|-----------------|-----------------|-----------------|
|---------------7-|-6-----6-5-----5-|---------------7-|-6-----6---------|
|---------------5-|-4-----4-3-----3-|---------------5-|-4-----4-7-----7-|
|-2---------------|-----------------|-2---------------|---------5-----5-|
|-0-0-0-0-0-0-0---|---0-0-----0-0---|-0-0-0-0-0-0-0---|---0-0-----0-0---|


    PM--------|       PM|     PM|       PM--------|       PM|     PM|
  E E E E E E E E   E E E E E E E E   E E E E E E E E   E E E E E E E E
|-----------------|-----------------|-----------------|-----------------|
|-----------------|-----------------|-----------------|-----------------|
|---------------7-|-6-----6-5-----5-|---------------7-|-6-----6---------|
|---------------5-|-4-----4-3-----3-|---------------5-|-4-----4-7-----7-|
|-2---------------|-----------------|-2---------------|---------5-----5-|
|-0-0-0-0-0-0-0---|---0-0-----0-0---|-0-0-0-0-0-0-0---|---0-0-----0-0---|


    PM------|      PM|   PM|   PM|     PM|   PM|       PM|   PM|   PM|
  E E E E E E Q    E E E E E E E E   E E E E E E E E   E E E E E E E E
|----------------|-----------------|-----------------|-----------------|
|----------------|-----------------|-----------------|-----------------|
|----------------|-----------------|-----------------|-----------------|
|-9--------------|-----------------|-----------------|-----------------|
|-7-----------7--|-----2-----5-----|-4-----5-----7-5-|-----2-----5-----|
|---0-0-0-0-0----|-0-0-0-0-0-3-0-0-|-2-0-0-3-0-0-5-3-|-0-0-0-0-0-3-0-0-|


    PM|   PM|       PM|   PM|   PM|     PM|   PM|       PM|   PM|   PM|
  E E E E E E E E   E E E E E E E E   E E E E E E E E   E E E E E E E E
|-----------------|-----------------|-----------------|-----------------|
|-----------------|-----------------|-----------------|-----------------|
|-----------------|-----------------|-----------------|-----------------|
|-----------------|-----------------|-----------------|-----------------|
|-4-----5-----7-5-|-----2-----5-----|-4-----5-----7-5-|-----2-----5-----|
|-2-0-0-3-0-0-5-3-|-0-0-0-0-0-3-0-0-|-2-0-0-3-0-0-5-3-|-0-0-0-0-0-3-0-0-|


    PM|   PM|       PM|   PM|   PM|     PM|   PM|       PM|   PM|   PM|
  E E E E E E E E   E E E E E E E E   E E E E E E E E   E E E E E E E E
|-----------------|-----------------|-----------------|-----------------|
|-----------------|-----------------|-----------------|-----------------|
|-----------------|-----------------|-----------------|-----------------|
|-----------------|-----------------|-----------------|-----------------|
|-4-----5-----7-5-|-----2-----5-----|-4-----5-----7-5-|-----2-----5-----|
|-2-0-0-3-0-0-5-3-|-0-0-0-0-0-3-0-0-|-2-0-0-3-0-0-5-3-|-0-0-0-0-0-3-0-0-|


    PM|   PM|       PM|   PM|   PM|     PM|   PM|       PM|   PM|   PM|
  E E E E E E E E   E E E E E E E E   E E E E E E E E   E E E E E E E E
|-----------------|-----------------|-----------------|-----------------|
|-----------------|-----------------|-----------------|-----------------|
|-----------------|-----------------|-----------------|-----------------|
|-----------------|-----------------|-----------------|-----------------|
|-4-----5-----7-5-|-----2-----5-----|-4-----5-----7-5-|-----2-----5-----|
|-2-0-0-3-0-0-5-3-|-0-0-0-0-0-3-0-0-|-2-0-0-3-0-0-5-3-|-0-0-0-0-0-3-0-0-|


 5/4                   4/4
    PM------|     PM|
  E E E E E E E E E E   E E E E E E E E   E E E E E E E E   E E E E E E E E
|---------------------|-----------------|-----------------|------------------|
|---------------------|-----------------|-----------------|------------------|
|---------------------|-9-7---7---------|-9-7---7---------|-9-7---7----------|
|-4-----------7-5-----|-----9---9-8-7-5-|-----9---9-8-7-5-|-----9---9-8-7-5--|
|-4-----------7-5-----|-----------------|-----------------|------------------|
|-2-0-0-0-0-0-5-3-0-0-|-----------------|-----------------|------------------|


  PM----|
  E E E E  Q  Q
|------------------*|
|------------------*|
|---------12-------*|
|---------12-------*|
|---------10-------*|
|-0-0-0-0----------*|
comments
print report bad tab
11 comments total. Showing first comments.
+1 reply
kirkII wrote on June 1 2005, 12:00 am

four stars alright. It was pretty good

+1 reply
rbm90120 wrote on June 1 2005, 12:00 am

it seems like its the same things as the other ones, but the fingering i s different and sounds the same, but it has its good points

+1 reply
DeThRoNeDChRiSt wrote on June 1 2005, 12:00 am

Yea..there is another one like this. I didn't notice someone had already submitted a tab played this way. A few of my fingerings are different though. I'm pretty sure this tab is right except the solo which I'm not to sure about. And as you see I didn't add the bends...but thanks for checking out my tab.

I want to post or [tab]
guest
You may want to rate the tab now too:
select rating
Please do not post tabs as comments. Select "correction" instead!