Oops, an error
Loading. Please wait.

Shoot Me Again Tab

ver1
ver1

Whole song

More versions @911Tabs.com
7,862 views 15 this week
1 commentread comment
1 2 3 4 5
worth learning
x 2
Autoscroll
+/-
esc
set tempo
stop
Contributor
WARNING: You are trying to view
                                    content from Ultimate-Guitar.com
                                    in an unauthorized application,
                                    which is prohibited.

                                    Please use an official Ultimate
                                    Guitar Tabs application for iPhone,
                                    iPad or Android to access legitimate
                                    chords, guitar, bass, and drum tabs
                                    from Ultimate-Guitar.com database.

                                    Type "ultimate guitar tabs" in Apple
                                    App Store's or Android Market's
                                    search to find the application.
"Shoot Me Again"

by Metallica
written by Hetfield/Ulrich/Hammett/Rock

available on "St. Anger" album

tabbed by Tero Saikkonen from Finland
tsslayer@luukku.com
www.pureheavymetal.cjb.net


Guitars Dropped-C tuning (Strings on D) 
(like all songs in "st. Anger" album, except "Dirty Window"(C# dropped-B)
"Invisible Kid"(A# dropped-G#)
 and "The Unnamed Feeling"(C dropped-A#))

6=C 3=F
5=G 2=A
4=C 1=D


INTRO
 /flanger effect/
 (-7-)
|-----------------------------|
|-x-x-x-x-x-x-x-x-x-x-x-x-x-x-|
|-----------------------------|
|-----------------------------|
|-----------------------------|
|-----------------------------|


|---------------------| -4-
|---------------------|  T
|---------------------|  I
|---------------------|  M
|-0----0----0----0----|  E
|-0----0----0----0----|  S


|---------------------|
|---------------------|
|---------------------|
|---------------------|
|-0-------------------|
|-0-------------------|


|---------------------------------| -4-
|---------------------------------|  T
|---------------------------------|  I
|-0-----------0-----------0-------|  M
|-0-----------0-----------0-------|  E
|-0---0-0-0-0-0---0-0-0-0-0---0-0-|  S


|---------------------------------| -2-
|---------------------------------|  T
|---------------------------------|  I
|-0-----------0-----------0-------|  M
|-0-----------0-----------0-------|  E
|-0-----------0-----------0-------|  S

 ____________________________________________________________________
|1,2,3 times                      |4th time                          |
|---------------------------------|----------------------------------|
|---------------------------------|----------------------------------|
|---------------------------------|----------------------------------|
|-0-----------0-----------0-------|-0-----------0--------------------|
|-0-----------0-----------0-------|-0-----------0--------------------|
|-0---0-0-0-0-0---0-0-0-0-0---0-0-|-0---0-0-0-0-0--------------------|



MAINRIFF
|---------------------------------| -8-
|---------------------------------|  T
|---------------------------------|  I
|---------------------------------|  M
|-0---0-----5-----0---0---1-------|  E
|-0---0---0-------0---0---1-------|  S


VERSE ("I wont go away...")
 GTR I
 /distortion/
|------------------------------------------------------------------------------------------|
|------------------------------------------------------------------------------------------|
|------------------------------------------------------------------------------------------|
|------------------------------------------------------------------------------------------|
|-0---0-0----0----0----0--0---0-0----0----0----0--1---1-1----1----1----1--1-1-1-1-1-1-1----|-2-
|-0---0-0----0----0----0--0---0-0----0----0----0--1---1-1----1----1----1--1-1-1-1-1-1-1----| T
|                                                                                          | I
|GTR II                                                                                    | M
|/half-acoustic with slow-effect/                                                          | E
|------------------------------------------------------------------------------------------| S
|------------------------------------------------------------------------------------------|
|--------------------------------------------------------------------------------½-----full|
|(7)---------------------(10)--------------------(8)----------------------8-/-/-/-/-/-/----|
|-5-----------------------8-----------------------6-----------------------6-/-/-/-/-/-/----|
|------------------------------------------------------------------------------------------|


THEN PLAY:
            MAINRIFF   x 4 
         
            VERSERIFF  x 2

THEN:

("Shoot me again i ain´t dead yet...")
|------------------------------------------------| -4-
|------------------------------------------------|  T
|------------------------------------------------|  I
|------------------------------------------------|  M
|-------------------------0----3----1--------/3--|  E
|---------------------\x--0----3----1--------/3--|  S


("Shoot me again, shoot me again...!")
|--------------------------| -4-
|--------------------------|  T
|--------------------------|  I
|--------------------------|  M
|-0--0-0-0-0--0-0-0-0--0-0-|  E
|-0--0-0-0-0--0-0-0-0--0-0-|  S


("All the shots i take...")
|---------------------------------------------------
|---------------------------------------------------
|---------------------------------------------------
|---------------------------------------------------
|---------------------------------------------------
|-0---0---0-0--0-0-----0-0-3---3---0-3--0-3-----3-3-

----------------------------------------------------| -2-
----------------------------------------------------|  T
----------------------------------------------------|  I
----------------------------------------------------|  M
--------------------------5/6-6-6-6-5/6-6-6-6-5/6-6-|  E
-1---1---1-1--1-1-----1-1---------------------------|  S


("All the shots...")
|----------------------------| -2-
|----------------------------|  T
|----------------------------|  I
|----------------------------|  M
|-0-0-0-0-0-0-0--------------|  E
|-0-0-0-0-0-0-0--------------|  S


("All the shots i take...")
|-----------------------------------------------------
|-----------------------------------------------------
|-----------------------------------------------------
|-----------------------------------------------------
|-----------------------------------------------------
|-0--0--0-0--0-0--0--0-0--0-3--3--0-3--0-3--3--0-3--0-

-----------------------------------------------------| -2-
-----------------------------------------------------|  T
-----------------------------------------------------|  I
-----------------------------------------------------|  M
---------------------------5/6-6-6-6-5/6-6-6-6-5/6-6-|  E
-1--1--0-1--0-1--1--0-1--0---------------------------|  S


THEN PLAY:
           MAINRIFF  x 4

           VERSE     x 2

           MAINRIFF  x 4
   
           VERSE     x 2

THEN:

("Shoot me again i ain´t dead yet...")
|------------------------------------------------| -4-
|------------------------------------------------|  T
|------------------------------------------------|  I
|------------------------------------------------|  M
|-------------------------0----3----1--------/3--|  E
|---------------------\x--0----3----1--------/3--|  S


("Shoot me again, shoot me again...!")
|--------------------------| -4-
|--------------------------|  T
|--------------------------|  I
|--------------------------|  M
|-0--0-0-0-0--0-0-0-0--0-0-|  E
|-0--0-0-0-0--0-0-0-0--0-0-|  S


("All the shots i take...")
|---------------------------------------------------
|---------------------------------------------------
|---------------------------------------------------
|---------------------------------------------------
|---------------------------------------------------
|-0---0---0-0--0-0-----0-0-3---3---0-3--0-3-----3-3-

----------------------------------------------------| -2-
----------------------------------------------------|  T
----------------------------------------------------|  I
----------------------------------------------------|  M
--------------------------5/6-6-6-6-5/6-6-6-6-5/6-6-|  E
-1---1---1-1--1-1-----1-1---------------------------|  S


("All the shots...")
|----------------------------| -2-
|----------------------------|  T
|----------------------------|  I
|----------------------------|  M
|-0-0-0-0-0-0-0--------------|  E
|-0-0-0-0-0-0-0--------------|  S


("All the shots i take...")
|-----------------------------------------------------
|-----------------------------------------------------
|-----------------------------------------------------
|-----------------------------------------------------
|-----------------------------------------------------
|-0--0--0-0--0-0--0--0-0--0-3--3--0-3--0-3--3--0-3--0-

-----------------------------------------------------| -2-
-----------------------------------------------------|  T
-----------------------------------------------------|  I
-----------------------------------------------------|  M
---------------------------5/6-6-6-6-5/6-6-6-6-5/6-6-|  E
-1--1--0-1--0-1--1--0-1--0---------------------------|  S


THEN PLAY:
           MAINRIFF  x 4

THEN:
 /flanger effect/
 (-7-)
|-----------------------------|
|-x-x-x-x-x-x-x-x-x-x-x-x-x-x-|
|-----------------------------|
|-----------------------------|
|-----------------------------|
|-----------------------------|


|---------------------------------| -4-
|---------------------------------|  T
|---------------------------------|  I
|-0-----------0-----------0-------|  M
|-0-----------0-----------0-------|  E
|-0---0-0-0-0-0---0-0-0-0-0---0-0-|  S


|---------------------------------| -2-
|---------------------------------|  T
|---------------------------------|  I
|-0-----------0-----------0-------|  M
|-0-----------0-----------0-------|  E
|-0-----------0-----------0-------|  S

 ____________________________________________________________________
|1,2,3 times                      |4th time                          |
|---------------------------------|----------------------------------|
|---------------------------------|----------------------------------|
|---------------------------------|----------------------------------|
|-0-----------0-----------0-------|-0--------------------------------|
|-0-----------0-----------0-------|-0--------------------------------|
|-0---0-0-0-0-0---0-0-0-0-0---0-0-|-0--------------------------------|


 GTR I
|-------------------------------------------|
|-------------------------------------------|
|-------------------------------------------|
|--------_--------_--------_--------_-------|
|-0--0--6-5------6-5------6-5------6-5------| -2
|-0--0--------------------------------------|  T
|                                           |  I
|GTR II                                     |  M
|-------------------------------------------|  E
|-------------------------------------------|  S
|-------------------------------------------|
|-------------------------------------------|
|-0-0---------------------------------------|
|-0-0---------------------------------------|


|-------------------------------------------------------| -2-
|-------------------------------------------------------|  T
|-------------------------------------------------------|  I
|--------_------------_------------_------------_-------|  M
|-0--0--6-5----0--0--6-5----0--0--6-5----0--0--6-5------|  E
|-0--0---------0--0---------0--0---------0--0-----------|  S

("I bute my tongue, trying not to shoot back...")
|-----------------------------------------------------------|
|-----------------------------------------------------------|
|-----------------------------------------------------------|
|-----------------------------------------------------------|
|-1--1-1-1-1-1--1-1-1-1-1--1-1-1--1-1-1-1-1--1-1-1-1-1--1-1-|
|-1--1-1-1-1-1--1-1-1-1-1--1-1-1--1-1-1-1-1--1-1-1-1-1--1-1-|

|-------------------------------------------------------|
|-------------------------------------------------------|
|-------------------------------------------------------|
|--------_------------_------------_------------_-------|
|-0--0--6-5----0--0--6-5----0--0--6-5----0--0--6-5------|
|-0--0---------0--0---------0--0---------0--0-----------|

|-----------------------------------------------------------|
|-----------------------------------------------------------|
|-----------------------------------------------------------|
|-----------------------------------------------------------|
|-1--1-1-1-1-1--1-1-1-1-1--1-1-1--1-1-1-1-1--1-1-1-1-1--1-1-|
|-1--1-1-1-1-1--1-1-1-1-1--1-1-1--1-1-1-1-1--1-1-1-1-1--1-1-|

|-------------------------------------------------------|
|-------------------------------------------------------|
|-------------------------------------------------------|
|--------_------------_------------_------------_-------|
|-0--0--6-5----0--0--6-5----0--0--6-5----0--0--6-5------|
|-0--0---------0--0---------0--0---------0--0-----------|


|---------------------------------| -2-
|---------------------------------|  T
|---------------------------------|  I
|-0-----------0-----------0-------|  M
|-0-----------0-----------0-------|  E
|-0-----------0-----------0-------|  S


|-----------------------------------------------------------------| -2-
|-----------------------------------------------------------------|  T
|-----------------------------------------------------------------|  I
|-----------------------------------------------------------------|  M
|-0-0---0-0---0-0---0-0---0-0---0-0---0-0---0-0---0-0---0-0---0---|  E
|-0-0---0-0---0-0---0-0---0-0---0-0---0-0---0-0---0-0---0-0---0---|  S

("Wake the sleeping giant, wake the beast...")
|-----------------------------------------------------------------| -2-
|-----------------------------------------------------------------|  T
|-----------------------------------------------------------------|  I
|-----------------------------------------------------------------|  M
|-0-0---0-0---0-0---0-0---0-0---0-0---0-0---0-0---0-0---0-0---0---|  E
|-0-0---0-0---0-0---0-0---0-0---0-0---0-0---0-0---0-0---0-0---0---|  S


|-----------------------------------------------------------|
|-----------------------------------------------------------|
|-----------------------------------------------------------|
|-----------------------------------------------------------|
|-1--1-1-1-1-1--1-1-1-1-1--1-1-1--1-1-1-1-1--1-1-1-1-1--1-1-|
|-1--1-1-1-1-1--1-1-1-1-1--1-1-1--1-1-1-1-1--1-1-1-1-1--1-1-|


|---------------------------------|
|---------------------------------|
|---------------------------------|
|-0-----------0-----------0-------|
|-0-----------0-----------0-------|
|-0-----------0-----------0-------|


|---------------------------------|
|---------------------------------|
|---------------------------------|
|-0---------0-0-------0-0-------0-|
|-0-0-0---0-0-0-0-0-0-0-0-0---0-0-|
|-0-0-0-0-0-0-0-0-0-0-0-0-0-0-0-0-|


("All the shots i take...")
|-------------------------------------------------------
|-------------------------------------------------------
|-------------------------------------------------------
|-------------------------------------------------------
|-0-0-0-0-0-0-0-0-0-0-0-0-0-3-3-3-3-3-3-3-3-3-3-3-3-3-3-
|-0-0-0-0-0-0-0-0-0-0-0-0-0-3-3-3-3-3-3-3-3-3-3-3-3-3-3-

-------------------------------------------------------| -2-
-------------------------------------------------------|  T
-------------------------------------------------------|  I
-------------------------------------------------------|  M
-1---1-1---1-1---1-1---1-1-5/6-6-5/6-6-5/6-6-5/6-6-5/6-|  E
-1---1-1---1-1---1-1---1-1-----------------------------|  S


("All the shots...")
|----------------------------| -2-
|----------------------------|  T
|----------------------------|  I
|----------------------------|  M
|-0-0-0-0-0-0-0--------------|  E
|-0-0-0-0-0-0-0--------------|  S


|-------------------------------------------------------
|-------------------------------------------------------
|-------------------------------------------------------
|-------------------------------------------------------
|-0-0-0-0-0-0-0-0-0-0-0-0-0-3-3-3-3-3-3-3-3-3-3-3-3-3-3-
|-0-0-0-0-0-0-0-0-0-0-0-0-0-3-3-3-3-3-3-3-3-3-3-3-3-3-3-

-------------------------------------------------------| -2-
-------------------------------------------------------|  T
-------------------------------------------------------|  I
-------------------------------------------------------|  M
-1---1-1---1-1---1-1---1-1-5/6-6-5/6-6-5/6-6-5/6-6-5/6-|  E
-1---1-1---1-1---1-1---1-1-----------------------------|  S

THEN PLAY:
             MAINRIFF  x 4

THEN:

 /flanger effect/
 (-7-)
|-----------------------------|
|-x-x-x-x-x-x-x-x-x-x-x-x-x-x-|
|-----------------------------| THE
|-----------------------------| END
|-0---------------------------|
|-0---------------------------|

           tabbed by:
   T E R O   S A I K K O N E N
         contact me to:
t s s l a y e r @ l u u k k u . c o m
comments
We did not receive enough feedback on this tab! Please rate:
print report bad tab
1 2 3 4 5
1 comment total.
0 reply
sk8errockerguy wrote on September 21 2003, 12:00 am

cool

I want to post or [tab]
guest
You may want to rate the tab now too:
select rating
Please do not post tabs as comments. Select "correction" instead!