Oops, an error
Loading. Please wait.

Shoot Me Again Tab

ver2
ver2

Whole song

Interactive

More versions @911Tabs.com
8,922 views 3 this week
7 commentsread comments
1 2 3 4 5
excellent!
x 4
Autoscroll
+/-
esc
set tempo
stop
Contributor
NEW! There's an official Ultimate Guitar app which is ideal
for learning songs when you're away from computer. Get the app
WARNING: You are trying to view
                                    content from Ultimate-Guitar.com
                                    in an unauthorized application,
                                    which is prohibited.

                                    Please use an official Ultimate
                                    Guitar Tabs application for iPhone,
                                    iPad or Android to access legitimate
                                    chords, guitar, bass, and drum tabs
                                    from Ultimate-Guitar.com database.

                                    Type "ultimate guitar tabs" in Apple
                                    App Store's or Android Market's
                                    search to find the application.
Band- Metallica
Song- Shoot Me Again

  D5                   Eb5                  F5
      0 0 0 x x x          1 1 1 x x x          3 3 3 x x x

Gtr I (C G C F A D) - 'Kirk or James'
Gtr II (C G C F A D) - 'James or Kirk'
Gtr III (C G C F A D) - 'Used for the Delay Effect'
Gtr IV (E A D G B E) - 'Used for the Verse variations'

 Intro
  Q=112
 4/4
  Gtr I
  W                                 W
|---------------------------------|---------------------------------|
|---------------------------------|---------------------------------|
|---------------------------------|---------------------------------|
|---------------------------------|---------------------------------|
|---------------------------------|---------------------------------|
|---------------------------------|---------------------------------|
|
| Gtr II
| S S S S S S S S S S S S S S S S   S S S S S S S S S S S S S S S S
|---------------------------------|---------------------------------|
|---------------------------------|---------------------------------|
|-x-x-x-x-x-x-x-x-x-x-x-x-x-x-x-x-|-x-x-x-x-x-x-x-x-x-x-x-x-x-x-x-x-|
|-x-x-x-x-x-x-x-x-x-x-x-x-x-x-x-x-|-x-x-x-x-x-x-x-x-x-x-x-x-x-x-x-x-|
|-x-x-x-x-x-x-x-x-x-x-x-x-x-x-x-x-|-x-x-x-x-x-x-x-x-x-x-x-x-x-x-x-x-|
|---------------------------------|---------------------------------|


  W                                 W
|---------------------------------|----------------------------------|
|---------------------------------|----------------------------------|
|---------------------------------|----------------------------------|
|---------------------------------|----------------------------------|
|---------------------------------|----------------------------------|
|---------------------------------|----------------------------------|
|
| S S S S S S S S S S S S S S S S   S S S S S S S S S S S S S S S S
|---------------------------------|----------------------------------|
|---------------------------------|----------------------------------|
|-x-x-x-x-x-x-x-x-x-x-x-x-x-x-x-x-|-x-x-x-x-x-x-x-x-x-x-x-x-x-x-x-x--|
|-x-x-x-x-x-x-x-x-x-x-x-x-x-x-x-x-|-x-x-x-x-x-x-x-x-x-x-x-x-x-x-x-x--|
|-x-x-x-x-x-x-x-x-x-x-x-x-x-x-x-x-|-x-x-x-x-x-x-x-x-x-x-x-x-x-x-x-x--|
|---------------------------------|----------------------------------|


    D5
    S S S S S S S S S S S S S S S S
||----------------------------------|
||o---------------------------------|
||----------------------------------|
||----------------------------------|
||o-4h5h6---4h5h6---4h5h6---4h5h6---|
||--0-------0-------0-------0-------|
|
|   S S S S S S S S S S S S S S S S
||----------------------------------|
||o---------------------------------|
||--x-x-x-x-x-x-x-x-x-x-x-x-x-x-x-x-|
||--x-x-x-x-x-x-x-x-x-x-x-x-x-x-x-x-|
||o-x-x-x-x-x-x-x-x-x-x-x-x-x-x-x-x-|
||----------------------------------|


  S S S S S S S S S S S S S S S S     S S S S H.
|----------------------------------||---------------|
|---------------------------------o||---------------|
|----------------------------------||---------------|
|----------------------------------||---------------|
|-4h5h6---4h5h6---4h5h6---4h5h6---o||-4h5h6---------|
|-0-------0-------0-------0--------||-0-------------|
|
| S S S S S S S S S S S S S S S S     S S S S H.
|----------------------------------||---------------|
|---------------------------------o||---------------|
|-x-x-x-x-x-x-x-x-x-x-x-x-x-x-x-x--||-x-x-x---------|
|-x-x-x-x-x-x-x-x-x-x-x-x-x-x-x-x--||-x-x-x---------|
|-x-x-x-x-x-x-x-x-x-x-x-x-x-x-x-x-o||-x-x-x---------|
|----------------------------------||---------------|


   Bridge
    Q=224
    D5
            PM----|           PM----|         PM|
    S S S S E E E E S S S S   E E E E S S S S E E
||--------------------------|---------------------|
||o-------------------------|---------------------|
||--------------------------|---------------------|
||--------------------------|---------------------|
||o-4h5h6-----------4h5h6---|---------4h5h6-------|
||--0-------0-0-0-0-0-------|-0-0-0-0-0-------0-0-|
|
|   S S S S Q   Q   S S S S   Q   Q   S S S S Q
||--------------------------|---------------------|
||o-------------------------|---------------------|
||--------------------------|---------------------|
||--------------------------|---------------------|
||o-4h5h6-----------4h5h6---|---------4h5h6-------|
||--0---------------0-------|---------0-----------|


          PM----|           PM----|         PM|
  S S S S E E E E S S S S   E E E E S S S S E E
|-------------------------|------------------------||
|-------------------------|-----------------------o||
|-------------------------|------------------------||
|-------------------------|------------------------||
|-4h5h6-----------4h5h6---|---------4h5h6---------o||
|-0-------0-0-0-0-0-------|-0-0-0-0-0-------0-0----||
|
| S S S S Q   Q   S S S S   Q   Q   S S S S Q
|-------------------------|------------------------||
|-------------------------|-----------------------o||
|-------------------------|------------------------||
|-------------------------|------------------------||
|-4h5h6-----------4h5h6---|---------4h5h6---------o||
|-0---------------0-------|---------0--------------||


  S S S S Q  Q  S S S S   Q  Q  S S S S Q
|-----------------------|------------------|
|-----------------------|------------------|
|-----------------------|------------------|
|-----------------------|------------------|
|-4h5h6---------4h5h6---|-------4h5h6------|
|-0-------------0-------|-------0----------|
|
| S S S S Q  Q  S S S S   Q  Q  S S S S Q
|-----------------------|------------------|
|-----------------------|------------------|
|-----------------------|------------------|
|-----------------------|------------------|
|-4h5h6---------4h5h6---|-------4h5h6------|
|-0-------------0-------|-------0----------|


  S S S S Q  Q  S S S S   Q  Q  S S S S Q
|-----------------------|--------------------|
|-----------------------|--------------------|
|-----------------------|--------------------|
|-----------------------|--------------------|
|-4h5h6---------4h5h6---|-------4h5h6--------|
|-0-------------0-------|-------0------------|
|
| S S S S Q  Q  S S S S   Q  Q  S S S S Q
|-----------------------|--------------------|
|-----------------------|--------------------|
|-----------------------|--------------------|
|-----------------------|--------------------|
|-4h5h6---------4h5h6---|-------4h5h6--------|
|-0-------------0-------|-------0------------|


            PM----|           PM----|         PM|
    S S S S E E E E S S S S   E E E E S S S S E E
||--------------------------|---------------------|
||o-------------------------|---------------------|
||--------------------------|---------------------|
||--------------------------|---------------------|
||o-4h5h6-----------4h5h6---|---------4h5h6-------|
||--0-------0-0-0-0-0-------|-0-0-0-0-0-------0-0-|
|
|   S S S S Q   Q   S S S S   Q   Q   S S S S Q
||--------------------------|---------------------|
||o-------------------------|---------------------|
||--------------------------|---------------------|
||--------------------------|---------------------|
||o-4h5h6-----------4h5h6---|---------4h5h6-------|
||--0---------------0-------|---------0-----------|


                           1.                       2.
          PM----|           PM----|         PM|
  S S S S E E E E S S S S   E E E E S S S S E E      W
|-------------------------|----------------------||-------|
|-------------------------|---------------------o||-------|
|-------------------------|----------------------||-------|
|-------------------------|----------------------||-------|
|-4h5h6-----------4h5h6---|---------4h5h6-------o||-------|
|-0-------0-0-0-0-0-------|-0-0-0-0-0-------0-0--||-------|
|
| S S S S Q   Q   S S S S   Q   Q   S S S S Q        W
|-------------------------|----------------------||-------|
|-------------------------|---------------------o||-------|
|-------------------------|----------------------||-------|
|-------------------------|----------------------||-------|
|-4h5h6-----------4h5h6---|---------4h5h6-------o||-------|
|-0---------------0-------|---------0------------||-------|


  Q=112
  D5            Eb5     D5            Eb5
  PM|   ~ PM--|         PM|   ~ PM--|
  e e S E s e e Q       e e S E s e e Q
|---------------------|---------------------|
|---------------------|---------------------|
|---------------------|---------------------|
|---------------1-----|---------------1-----|
|-0-0-6p5-0-0-0-1-----|-0-0-6p5-0-0-0-1-----|
|-0-0-----0-0-0-1-----|-0-0-----0-0-0-1-----|
|
|       ~                     ~
| E E S E S E E E.  S   E E S E S E E E.  S
|---------------------|---------------------|
|---------------------|---------------------|
|---------------------|---------------------|
|---------------1--!1-|---------------1--!1-|
|-----6p5-------1--!1-|-----6p5-------1--!1-|
|-0-0-----0-0-0-1--!1-|-0-0-----0-0-0-1--!1-|


  D5            Eb5     D5            Eb5
  PM|   ~ PM--|         PM|   ~ PM--|
  e e S E s e e Q       e e S E s e e Q
|---------------------|-----------------------|
|---------------------|-----------------------|
|---------------------|-----------------------|
|---------------1-----|---------------1-------|
|-0-0-6p5-0-0-0-1-----|-0-0-6p5-0-0-0-1-------|
|-0-0-----0-0-0-1-----|-0-0-----0-0-0-1-------|
|
|       ~                     ~
| E E S E S E E E.  S   E E S E S E E E.  S
|---------------------|-----------------------|
|---------------------|-----------------------|
|---------------------|-----------------------|
|---------------1--!1-|---------------1--!1---|
|-----6p5-------1--!1-|-----6p5-------1--!1---|
|-0-0-----0-0-0-1--!1-|-0-0-----0-0-0-1--!1---|


 Pre-Verse I
  Q=112
  $
  $$
  D5            Eb5     D5            Eb5
  PM|   ~ PM--|         PM|   ~ PM--|
  e e S E s e e Q       e e S E s e e Q
|---------------------|---------------------|
|---------------------|---------------------|
|---------------------|---------------------|
|---------------1-----|---------------1-----|
|-0-0-6p5-0-0-0-1-----|-0-0-6p5-0-0-0-1-----|
|-0-0-----0-0-0-1-----|-0-0-----0-0-0-1-----|
|
|       ~                     ~
| E E S E S E E E.  S   E E S E S E E E.  S
|---------------------|---------------------|
|---------------------|---------------------|
|---------------------|---------------------|
|---------------1--!1-|---------------1--!1-|
|-----6p5-------1--!1-|-----6p5-------1--!1-|
|-0-0-----0-0-0-1--!1-|-0-0-----0-0-0-1--!1-|


                                  To Coda
  D5            Eb5     D5            Eb5
  PM|   ~ PM--|         PM|   ~ PM--|
  e e S E s e e Q       e e S E s e e Q
|---------------------|-----------------------|
|---------------------|-----------------------|
|---------------------|-----------------------|
|---------------1-----|---------------1-------|
|-0-0-6p5-0-0-0-1-----|-0-0-6p5-0-0-0-1-------|
|-0-0-----0-0-0-1-----|-0-0-----0-0-0-1-------|
|
|       ~                     ~
| E E S E S E E E.  S   E E S E S E E E.  S
|---------------------|-----------------------|
|---------------------|-----------------------|
|---------------------|-----------------------|
|---------------1--!1-|---------------1--!1---|
|-----6p5-------1--!1-|-----6p5-------1--!1---|
|-0-0-----0-0-0-1--!1-|-0-0-----0-0-0-1--!1---|


 Verse 1 & 3
  D5
     PM|           PM-------|     PM      PM
  E  s s E E E E E e    S S S S E e E E E e
|--------------------|------------------------|
|--------------------|------------------------|
|--------------------|------------------------|
|--------------------|------------------------|
|--------------------|------------------------|
|-0--0-0---0---0---0-|--0h1p0-----0---0---0---|
|
| <                     <
| W                     W
|--------------------|------------------------|
|--------------------|------------------------|
|-7------------------|-10---------------------|
|--------------------|------------------------|
|-5------------------|--8---------------------|
|--------------------|------------------------|
|
| Gtr IV
|      PM          PM             PM      PM|
| E.   s E E E Q   e    S E   S E e E E E s s
|--------------------|------------------------|
|--------------------|------------------------|
|--------------------|------------------------|
|--------------------|------------------------|
|--------------------|------------------------|
|-0----0---0---0---0-|--1p0-------0---0---0-0-|


  Eb5
         PM--|
  Q      s s e E E +E  +S  S   S S S S S S S S H
|----------------------------|----------------------|
|----------------------------|----------------------|
|----------------------------|----------------------|
|----------------------------|----------------------|
|----------------------------|-1-1-1-1-1-1-1--------|
|-1------1-1-1---1-(1)-(1)s5-|-1-1-1-1-1-1-1--------|
|
| <
| W                            S S S S S S S S H
|----------------------------|----------------------|
|----------------------------|----------------------|
|-8--------------------------|-8-8-8-8-8-8-8--------|
|----------------------------|----------------------|
|-6--------------------------|-6-6-6-6-6-6-6--------|
|----------------------------|----------------------|
|
|        PM--|
| Q      s s e E E +E  +S  S   S S S S S S S S H
|----------------------------|----------------------|
|----------------------------|----------------------|
|----------------------------|----------------------|
|----------------------------|----------------------|
|----------------------------|-1-1-1-1-1-1-1--------|
|-1b1.5r=1-1-1---1-(1)-(1)s5-|-1-1-1-1-1-1-1--------|


  D5
     PM|            PM--------|   PM      PM|
  E  s s E E E E  E e    e. s s S e E E E s s
|---------------------|-----------------------|
|---------------------|-----------------------|
|---------------------|-----------------------|
|---------------------|-----------------------|
|---------------------|-----------------------|
|-0--0-0---0---0----0-|--0--0-0---0---0---0-0-|
|
| <                      <
| W                      W
|---------------------|-----------------------|
|---------------------|-----------------------|
|-7-------------------|-10--------------------|
|---------------------|-----------------------|
|-5-------------------|--8--------------------|
|---------------------|-----------------------|
|
|      PM                   PM            PM|
| E.   s E E E Q.        E. s E   E E Q   s s
|---------------------|-----------------------|
|---------------------|-----------------------|
|---------------------|-----------------------|
|---------------------|-----------------------|
|---------------------|-----------------------|
|-0----0---0---0------|--0--0-----0---0---0-0-|


  Eb5
        PM--|
  Q     s s e E E +E  +S  S   S S S S S S S S H
|---------------------------|----------------------|
|---------------------------|----------------------|
|---------------------------|----------------------|
|---------------------------|----------------------|
|---------------------------|-1-1-1-1-1-1-1--------|
|-1-----1-1-1---1-(1)-(1)s5-|-1-1-1-1-1-1-1--------|
|
| <
| W                           S S S S S S S S H
|---------------------------|----------------------|
|---------------------------|----------------------|
|-8-------------------------|-8-8-8-8-8-8-8--------|
|---------------------------|----------------------|
|-6-------------------------|-6-6-6-6-6-6-6--------|
|---------------------------|----------------------|
|
|     PM    PM
| E.  s E   e E E +E  +S  S   S S S S S S S S H
|---------------------------|----------------------|
|---------------------------|----------------------|
|---------------------------|----------------------|
|---------------------------|----------------------|
|---------------------------|-1-1-1-1-1-1-1--------|
|-1b2r1-----1---1-(1)-(1)s5-|-1-1-1-1-1-1-1--------|


 Pre-Verse II
  D5            Eb5     D5            Eb5
  PM|   ~ PM--|         PM|   ~ PM--|
  e e S E s e e Q       e e S E s e e Q
|---------------------|---------------------|
|---------------------|---------------------|
|---------------------|---------------------|
|---------------1-----|---------------1-----|
|-0-0-6p5-0-0-0-1-----|-0-0-6p5-0-0-0-1-----|
|-0-0-----0-0-0-1-----|-0-0-----0-0-0-1-----|
|
|       ~                     ~
| E E S E S E E E.  S   E E S E S E E E.  S
|---------------------|---------------------|
|---------------------|---------------------|
|---------------------|---------------------|
|---------------1--!1-|---------------1--!1-|
|-----6p5-------1--!1-|-----6p5-------1--!1-|
|-0-0-----0-0-0-1--!1-|-0-0-----0-0-0-1--!1-|


  D5            Eb5     D5            Eb5
  PM|   ~ PM--|         PM|   ~ PM--|
  e e S E s e e Q       e e S E s e e Q
|---------------------|-----------------------|
|---------------------|-----------------------|
|---------------------|-----------------------|
|---------------1-----|---------------1-------|
|-0-0-6p5-0-0-0-1-----|-0-0-6p5-0-0-0-1-------|
|-0-0-----0-0-0-1-----|-0-0-----0-0-0-1-------|
|
|       ~                     ~
| E E S E S E E E.  S   E E S E S E E E.  S
|---------------------|-----------------------|
|---------------------|-----------------------|
|---------------------|-----------------------|
|---------------1--!1-|---------------1--!1---|
|-----6p5-------1--!1-|-----6p5-------1--!1---|
|-0-0-----0-0-0-1--!1-|-0-0-----0-0-0-1--!1---|


 Verse 2 & 4
  D5
       PM                 PM         PM
  E.   s E E E Q.      E. s E E E Q  e
|-------------------|--------------------|
|-------------------|--------------------|
|-------------------|--------------------|
|-------------------|--------------------|
|-------------------|--------------------|
|-0----0---0---0----|--0--0---0---0--0---|
|
| <                    <
| W                    W
|-------------------|--------------------|
|-------------------|--------------------|
|-7-----------------|-10-----------------|
|-------------------|--------------------|
|-5-----------------|--8-----------------|
|-------------------|--------------------|
|
| Gtr IV
|    PM|                  PM         PM|
| E  s s E E E Q.      E. s E E E Q  s s
|-------------------|--------------------|
|-------------------|--------------------|
|-------------------|--------------------|
|-------------------|--------------------|
|-------------------|--------------------|
|-0--0-0---0---0----|--0--0---0---0--0-0-|


  Eb5
        PM  PM
  E.    s E e E E +E  +S  S   S S S S S S S S H
|---------------------------|----------------------|
|---------------------------|----------------------|
|---------------------------|----------------------|
|---------------------------|----------------------|
|---------------------------|-1-1-1-1-1-1-1--------|
|-1-----1---1---1-(1)-(1)s5-|-1-1-1-1-1-1-1--------|
|
| <
| W                           S S S S S S S S H
|---------------------------|----------------------|
|---------------------------|----------------------|
|-8-------------------------|-8-8-8-8-8-8-8--------|
|---------------------------|----------------------|
|-6-------------------------|-6-6-6-6-6-6-6--------|
|---------------------------|----------------------|
|
|           PM
| Q       E e E E +E  +S  S   S S S S S S S S H
|---------------------------|----------------------|
|---------------------------|----------------------|
|---------------------------|----------------------|
|---------------------------|----------------------|
|---------------------------|-1-1-1-1-1-1-1--------|
|-1b1.5r====1---1-(1)-(1)s5-|-1-1-1-1-1-1-1--------|


  D5
     PM                     PM            PM|
  E. s E E E Q.          E. s E   E E Q   s s
|---------------------|-----------------------|
|---------------------|-----------------------|
|---------------------|-----------------------|
|---------------------|-----------------------|
|---------------------|-----------------------|
|-0--0---0---0--------|--0--0-----0---0---0-0-|
|
| <                      <
| W                      W
|---------------------|-----------------------|
|---------------------|-----------------------|
|-7-------------------|-10--------------------|
|---------------------|-----------------------|
|-5-------------------|--8--------------------|
|---------------------|-----------------------|
|
|    PM         PM|         PM----|   PM  PM|
| E. s E E E E  s s E    E. s s s e E e E s s
|---------------------|-----------------------|
|---------------------|-----------------------|
|---------------------|-----------------------|
|---------------------|-----------------------|
|---------------------|-----------------------|
|-0--0---0---0--0-0---|--0--0-0-0-0---0---0-0-|


  Eb5
        PM--|
  E.    s E e E E +E  +S  S   S S S S S S S S H
|---------------------------|----------------------|
|---------------------------|----------------------|
|---------------------------|----------------------|
|---------------------------|----------------------|
|---------------------------|-1-1-1-1-1-1-1--------|
|-1b2r==1---1---1-(1)-(1)s5-|-1-1-1-1-1-1-1--------|
|
| <
| W                           S S S S S S S S H
|---------------------------|----------------------|
|---------------------------|----------------------|
|-8-------------------------|-8-8-8-8-8-8-8--------|
|---------------------------|----------------------|
|-6-------------------------|-6-6-6-6-6-6-6--------|
|---------------------------|----------------------|
|
|     PM    PM
| E   e   E e E E +E  +S  S   S S S S S S S S H
|---------------------------|----------------------|
|---------------------------|----------------------|
|---------------------------|----------------------|
|---------------------------|----------------------|
|---------------------------|-1-1-1-1-1-1-1--------|
|-1b2r1-----1---1-(1)-(1)s5-|-1-1-1-1-1-1-1--------|


   Pre-Chorus
                     D5 F5  Eb5      F5
    Q  Q  Q  S S E   E. E S E +Q   S S E
||-----------------|---------------------|
||o----------------|---------------------|
||-----------------|---------------------|
||-----------x-x---|-0--3---1-(1)--1-3---|
||o----------x-x---|-0--3---1-(1)--1-3---|
||-----------x-x---|-0--3---1-(1)--1-3---|
|
|   Q  Q  Q  Q       E. E S E +Q   S S E
||-----------------|---------------------|
||o----------------|---------------------|
||-----------------|---------------------|
||-----------------|---------------------|
||o----------------|-0--3---1-(1)--1S3---|
||-----------------|-0--3---1-(1)--1S3---|


                   D5 F5  Eb5    EbE5F5
  Q  Q  Q  S S E   E. E S E +Q   S S S S
|----------------|------------------------||
|----------------|-----------------------o||
|----------------|------------------------||
|----------x-x---|-0--3---1-(1)--1-2-3----||
|----------x-x---|-0--3---1-(1)--1-2-3---o||
|----------x-x---|-0--3---1-(1)--1-2-3----||
|
| Q  Q  Q  Q       E. E S E +Q   S S S S
|----------------|------------------------||
|----------------|-----------------------o||
|----------------|------------------------||
|----------------|------------------------||
|----------------|-0--3---1-(1)--1-2-3---o||
|----------------|-0--3---1-(1)--1-2-3----||


   Bridge
    Q=224
    D5
    S S S S Q   Q   S S S S   Q   Q   S S S S Q
||--------------------------|----------------------||
||o-------------------------|---------------------o||
||--------------------------|----------------------||
||--------------------------|----------------------||
||o-4h5h6-----------4h5h6---|---------4h5h6-------o||
||--0---------------0-------|---------0------------||
|
|   E   E   E E E E E   E     E E E E E   E   E E
||--------------------------|----------------------||
||o-------------------------|---------------------o||
||--------------------------|----------------------||
||--------------------------|----------------------||
||o-0---0---0-0-0-0-0---0---|-0-0-0-0-0---0---0-0-o||
||--0---0---0-0-0-0-0---0---|-0-0-0-0-0---0---0-0--||


      E E E E E E E E   E E E E E E E E
|-||------------------|------------------||
|-||o-----------------|-----------------o||
|-||------------------|------------------||
|-||------------------|------------------||
|-||o-----------------|-----------------o||
|-||--0-0-0-0-0-0-0-0-|-0-0-0-0-0-0-0-0--||
|
|     E E E E E E E E   E E E E E E E E
|-||------------------|------------------||
|-||o-----------------|-----------------o||
|-||------------------|------------------||
|-||------------------|------------------||
|-||o-0-0-0-0-0-0-0-0-|-0-0-0-0-0-0-0-0-o||
|-||--0-0-0-0-0-0-0-0-|-0-0-0-0-0-0-0-0--||


   Chorus I
    Q=112
    D5                   F5                   Eb5
    PM|                  PM|         ~        PM|         ~
    e e S S S S Q  E E   e e S S S S Q  E E   e e S S S S Q  E E
||---------------------|--------------------|--------------------|
||o--------------------|--------------------|--------------------|
||---------------------|--------------------|--------------------|
||---------------------|--------------------|--------------------|
||o--------------------|--------------------|--------------------|
||--0-0-0-0---0-0----0-|-3-3-3-3---0-3----3-|-1-1-1-1---0-1----1-|
|
|   PM|                  PM|         ~        PM|         ~
|   e e S S S S Q  E E   e e S S S S Q  E E   e e S S S S Q  E E
||---------------------|--------------------|--------------------|
||o--------------------|--------------------|--------------------|
||---------------------|--------------------|--------------------|
||---------------------|--------------------|--------------------|
||o--------------------|--------------------|--------------------|
||--0-0-0-0---0-0----0-|-3-3-3-3---0-3----3-|-1-1-1-1---0-1----1-|


   S      S  S  S  S  S  S  S  S  S  S  S  S  S  S    S
|--------------------------------------------------------||
|-------------------------------------------------------o||
|--------------------------------------------------------||
|--------------------------------------------------------||
|-------------------------------------------------------o||
|-12-----13-13-13-12-13-13-13-13-13-13-13-12-13-13---13--||
|
|  TP
|  H..                                          +E
|--------------------------------------------------------||
|-------------------------------------------------------o||
|--8b10=========================================(8)r-----||
|--------------------------------------------------------||
|-------------------------------------------------------o||
|--------------------------------------------------------||


  D5
  S S S S S S S S H      S S S S S S S S H
|----------------------|----------------------|
|----------------------|----------------------|
|----------------------|----------------------|
|-0-0-0-0-0-0-0-0------|-0-0-0-0-0-0-0-0------|
|-0-0-0-0-0-0-0-0------|-0-0-0-0-0-0-0-0------|
|-0-0-0-0-0-0-0-0------|-0-0-0-0-0-0-0-0------|
|
| S S S S S S S S H      S S S S S S S S H
|----------------------|----------------------|
|----------------------|----------------------|
|----------------------|----------------------|
|-0-0-0-0-0-0-0-0------|-0-0-0-0-0-0-0-0------|
|-0-0-0-0-0-0-0-0------|-0-0-0-0-0-0-0-0------|
|-0-0-0-0-0-0-0-0------|-0-0-0-0-0-0-0-0------|


   Chorus II
    D5                      F5                      Eb5
    PM|         PM----|     PM----------------|     PM----------------|
    e e S S S S e e S e S   e e S S S S e e S e S   e e S S S S e e S e S
||------------------------|-----------------------|-----------------------|
||o-----------------------|-----------------------|-----------------------|
||------------------------|-----------------------|-----------------------|
||------------------------|-----------------------|-----------------------|
||o-----------------------|-----------------------|-----------------------|
||--0-0-0-0---0-0-0---0-0-|-3-3-3-3---0-3-3---0-3-|-1-1-1-1---0-1-1---0-1-|
|
|   PM|         PM|   PM    PM----------------|     PM----------------|
|   e e S S S S e e S e S   e e S S S S e e S e S   e e S S S S e e S e S
||------------------------|-----------------------|-----------------------|
||o-----------------------|-----------------------|-----------------------|
||------------------------|-----------------------|-----------------------|
||------------------------|-----------------------|-----------------------|
||o-----------------------|-----------------------|-----------------------|
||--0-0-0-0---0-0-0---0-0-|-3-3-3-3---0-3-3---0-3-|-1-1-1-1---0-1-1---0-1-|


 1.
   S      S  S  S  S  S  S  S  S  S  S  S  S  S  S    S
|---------------------------------------------------------||
|--------------------------------------------------------o||
|---------------------------------------------------------||
|---------------------------------------------------------||
|--------------------------------------------------------o||
|-12-----13-13-13-12-13-13-13-13-13-13-13-12-13-13---13---||
|
|  TP
|  H..                                          +E
|---------------------------------------------------------||
|--------------------------------------------------------o||
|--8b10=========================================(8)r------||
|---------------------------------------------------------||
|--------------------------------------------------------o||
|---------------------------------------------------------||


 Bridge
  2.
                                                 D.S.
                                                 D.S.
   S      S  S  S  S  S  S  S  S  S  S  S  S  S  S    S
|-------------------------------------------------------||
|-------------------------------------------------------||
|-------------------------------------------------------||
|-------------------------------------------------------||
|-------------------------------------------------------||
|-12-----13-13-13-12-13-13-13-13-13-13-13-12-13-13---13-||
|
|  TP
|  H..                                          +E
|-------------------------------------------------------||
|-------------------------------------------------------||
|--8b10=========================================(8)r----||
|-------------------------------------------------------||
|-------------------------------------------------------||
|-------------------------------------------------------||


 Bridge
  &
  E   E   Q       Q       Q
|---------------------------------|
|---------------------------------|
|---------------------------------|
|---------------------------------|
|-5-------------------------------|
|-0-------------------------------|
|
| S S S S S S S S S S S S S S S S
|---------------------------------|
|---------------------------------|
|-x-x-x-x-x-x-x-x-x-x-x-x-x-x-x-x-|
|-x-x-x-x-x-x-x-x-x-x-x-x-x-x-x-x-|
|-x-x-x-x-x-x-x-x-x-x-x-x-x-x-x-x-|
|---------------------------------|


    Q=224
    D5
            PM----|           PM----|         PM|
    S S S S E E E E S S S S   E E E E S S S S E E
||--------------------------|---------------------|
||o-------------------------|---------------------|
||--------------------------|---------------------|
||--------------------------|---------------------|
||o-4h5h6-----------4h5h6---|---------4h5h6-------|
||--0-------0-0-0-0-0-------|-0-0-0-0-0-------0-0-|
|
|           PM----|           PM----|         PM|
|   S S S S E E E E S S S S   E E E E S S S S E E
||--------------------------|---------------------|
||o-------------------------|---------------------|
||--------------------------|---------------------|
||--------------------------|---------------------|
||o-4h5h6-----------4h5h6---|---------4h5h6-------|
||--0-------0-0-0-0-0-------|-0-0-0-0-0-------0-0-|


          PM----|           PM----|         PM|
  S S S S E E E E S S S S   E E E E S S S S E E
|-------------------------|------------------------||
|-------------------------|-----------------------o||
|-------------------------|------------------------||
|-------------------------|------------------------||
|-4h5h6-----------4h5h6---|---------4h5h6---------o||
|-0-------0-0-0-0-0-------|-0-0-0-0-0-------0-0----||
|
|         PM----|           PM----|         PM|
| S S S S E E E E S S S S   E E E E S S S S E E
|-------------------------|------------------------||
|-------------------------|-----------------------o||
|-------------------------|------------------------||
|-------------------------|------------------------||
|-4h5h6-----------4h5h6---|---------4h5h6---------o||
|-0-------0-0-0-0-0-------|-0-0-0-0-0-------0-0----||


  S S S S Q  Q  S S S S   Q  Q  S S S S Q
|-----------------------|------------------|
|-----------------------|------------------|
|-----------------------|------------------|
|-----------------------|------------------|
|-4h5h6---------4h5h6---|-------4h5h6------|
|-0-------------0-------|-------0----------|
|
| S S S S Q  Q  S S S S   Q  Q  S S S S Q
|-----------------------|------------------|
|-----------------------|------------------|
|-----------------------|------------------|
|-----------------------|------------------|
|-4h5h6---------4h5h6---|-------4h5h6------|
|-0-------------0-------|-------0----------|


  S S S S Q  Q  S S S S   Q  Q  S S S S Q
|-----------------------|--------------------|
|-----------------------|--------------------|
|-----------------------|--------------------|
|-----------------------|--------------------|
|-4h5h6---------4h5h6---|-------4h5h6--------|
|-0-------------0-------|-------0------------|
|
| S S S S Q  Q  S S S S   Q  Q  S S S S Q
|-----------------------|--------------------|
|-----------------------|--------------------|
|-----------------------|--------------------|
|-----------------------|--------------------|
|-4h5h6---------4h5h6---|-------4h5h6--------|
|-0-------------0-------|-------0------------|


            PM----|           PM----|         PM|
    S S S S E E E E S S S S   E E E E S S S S E E
||--------------------------|---------------------|
||o-------------------------|---------------------|
||--------------------------|---------------------|
||--------------------------|---------------------|
||o-4h5h6-----------4h5h6---|---------4h5h6-------|
||--0-------0-0-0-0-0-------|-0-0-0-0-0-------0-0-|
|
|           PM----|           PM----|         PM|
|   S S S S E E E E S S S S   E E E E S S S S E E
||--------------------------|---------------------|
||o-------------------------|---------------------|
||--------------------------|---------------------|
||--------------------------|---------------------|
||o-4h5h6-----------4h5h6---|---------4h5h6-------|
||--0-------0-0-0-0-0-------|-0-0-0-0-0-------0-0-|


 1.                                                 2.
          PM----|           PM----|         PM|
  S S S S E E E E S S S S   E E E E S S S S E E     S S S S Q  Q  Q
|-------------------------|----------------------||--------------------|
|-------------------------|---------------------o||--------------------|
|-------------------------|----------------------||--------------------|
|-------------------------|----------------------||--------------------|
|-4h5h6-----------4h5h6---|---------4h5h6-------o||-4h5h6--------------|
|-0-------0-0-0-0-0-------|-0-0-0-0-0-------0-0--||-0------------------|
|
|         PM----|           PM----|         PM|
| S S S S E E E E S S S S   E E E E S S S S E E     S S S S Q  Q  Q
|-------------------------|----------------------||--------------------|
|-------------------------|---------------------o||--------------------|
|-------------------------|----------------------||--------------------|
|-------------------------|----------------------||--------------------|
|-4h5h6-----------4h5h6---|---------4h5h6-------o||-4h5h6--------------|
|-0-------0-0-0-0-0-------|-0-0-0-0-0-------0-0--||-0------------------|


 Interlude
  Q=112
  PM--|     ~~~~~~          ~~~~~~            ~~~~~~          ~~~~~~
  E    E  S S +E  Q       S S +E    Q       S S +E  Q       S S +E
|---------------------------------|---------------------------------|
|---------------------------------|---------------------------------|
|---------------------------------|---------------------------------|
|---------------------------------|---------------------------------|
|---------6-5-(5)---------6-5-(5)-|---------6-5-(5)---------6-5-(5)-|
|-0----0--------------------------|---------------------------------|
|
| W                                 W
|---------------------------------|---------------------------------|
|---------------------------------|---------------------------------|
|---------------------------------|---------------------------------|
|---------------------------------|---------------------------------|
|---------------------------------|---------------------------------|
|---------------------------------|---------------------------------|
|
| Gtr III
|   ~~~~~~          ~~~~~~            ~~~~~~          ~~~~~~
| S S +E  Q       S S +E  Q         S S +E  Q       S S +E  E    E
|---------------------------------|---------------------------------|
|---------------------------------|---------------------------------|
|---------------------------------|---------------------------------|
|---------------------------------|---------------------------------|
|-6-5-(5)---------6-5-(5)---------|-6-5-(5)---------6-5-(5)---------|
|---------------------------------|-------------------------0----0--|


  PM--|     ~~~~~~          ~~~~~~            ~~~~~~          ~~~~~~
  E    E  S S +E  Q       S S +E    Q       S S +E  Q       S S +E
|---------------------------------|------------------------------------|
|---------------------------------|------------------------------------|
|---------------------------------|------------------------------------|
|---------------------------------|------------------------------------|
|---------6-5-(5)---------6-5-(5)-|---------6-5-(5)---------6-5-(5)----|
|-0----0--------------------------|------------------------------------|
|
| PM--|
| E    E  Q       H                 W
|---------------------------------|------------------------------------|
|---------------------------------|------------------------------------|
|---------------------------------|------------------------------------|
|---------------------------------|------------------------------------|
|-0----0--------------------------|------------------------------------|
|-0----0--------------------------|------------------------------------|
|
|   ~~~~~~          ~~~~~~            ~~~~~~          ~~~~~~
| S S +E  Q       S S +E  Q         S S +E  Q       S S +E  E    E
|---------------------------------|------------------------------------|
|---------------------------------|------------------------------------|
|---------------------------------|------------------------------------|
|---------------------------------|------------------------------------|
|-6-5-(5)---------6-5-(5)---------|-6-5-(5)---------6-5-(5)------------|
|---------------------------------|-------------------------0----0-----|


  PM--|     ~~~~~~PM--|     ~~~~~~  PM--|     ~~~~~~PM--|     ~~~~~~
  E    E  S S +E  E    E  S S +E    E    E  S S +E  E    E  S S +E
|---------------------------------|---------------------------------|
|---------------------------------|---------------------------------|
|---------------------------------|---------------------------------|
|---------------------------------|---------------------------------|
|---------6-5-(5)---------6-5-(5)-|---------6-5-(5)---------6-5-(5)-|
|-0----0----------0----0----------|-0----0----------0----0----------|
|
| PM--|           PM--|             PM--|           PM--|
| E    E  Q       E    E  Q         E    E  Q       E    E  Q
|---------------------------------|---------------------------------|
|---------------------------------|---------------------------------|
|---------------------------------|---------------------------------|
|---------------------------------|---------------------------------|
|-0----0----------0----0----------|-0----0----------0----0----------|
|-0----0----------0----0----------|-0----0----------0----0----------|
|
|   ~~~~~~          ~~~~~~            ~~~~~~          ~~~~~~PM--|
| S S +E  Q       S S +E  Q         S S +E  Q       S S +E  E    E
|---------------------------------|---------------------------------|
|---------------------------------|---------------------------------|
|---------------------------------|---------------------------------|
|---------------------------------|---------------------------------|
|-6-5-(5)---------6-5-(5)---------|-6-5-(5)---------6-5-(5)---------|
|---------------------------------|-------------------------0----0--|


  PM--|     ~~~~~~PM--|     ~~~~~~  PM--|     ~~~~~~PM--|     ~~~~~~
  E    E  S S +E  E    E  S S +E    E    E  S S +E  E    E  S S +E
|---------------------------------|------------------------------------|
|---------------------------------|------------------------------------|
|---------------------------------|------------------------------------|
|---------------------------------|------------------------------------|
|---------6-5-(5)---------6-5-(5)-|---------6-5-(5)---------6-5-(5)----|
|-0----0----------0----0----------|-0----0----------0----0-------------|
|
| PM--|           PM--|             PM--|           PM--|
| E    E  Q       E    E  Q         E    E  Q       E    E  Q
|---------------------------------|------------------------------------|
|---------------------------------|------------------------------------|
|---------------------------------|------------------------------------|
|---------------------------------|------------------------------------|
|-0----0----------0----0----------|-0----0----------0----0-------------|
|-0----0----------0----0----------|-0----0----------0----0-------------|
|
|   ~~~~~~          ~~~~~~            ~~~~~~          ~~~~~~PM--|
| S S +E  Q       S S +E  Q         S S +E  Q       S S +E  E    E
|---------------------------------|------------------------------------|
|---------------------------------|------------------------------------|
|---------------------------------|------------------------------------|
|---------------------------------|------------------------------------|
|-6-5-(5)---------6-5-(5)---------|-6-5-(5)---------6-5-(5)------------|
|---------------------------------|-------------------------0----0-----|


    Eb5
    S S S S S S S S S S S S S S S S   S S S S S S S S S S S S S S S S
||----------------------------------|---------------------------------|
||o---------------------------------|---------------------------------|
||----------------------------------|---------------------------------|
||----------------------------------|---------------------------------|
||o-1-1-1-1-1-1-1-1-1-1-1-1-1-1-1-1-|-1-1-1-1-1-1-1-1-1-1-1-1-1-1-1-1-|
||--1-1-1-1-1-1-1-1-1-1-1-1-1-1-1-1-|-1-1-1-1-1-1-1-1-1-1-1-1-1-1-1-1-|
|
|   S S S S S S S S S S S S S S S S   S S S S S S S S S S S S S S S S
||----------------------------------|---------------------------------|
||o---------------------------------|---------------------------------|
||----------------------------------|---------------------------------|
||----------------------------------|---------------------------------|
||o-1-1-1-1-1-1-1-1-1-1-1-1-1-1-1-1-|-1-1-1-1-1-1-1-1-1-1-1-1-1-1-1-1-|
||--1-1-1-1-1-1-1-1-1-1-1-1-1-1-1-1-|-1-1-1-1-1-1-1-1-1-1-1-1-1-1-1-1-|


  D5
  PM|   ~~~~~~PM|   ~~~~~~  PM|   ~~~~~~PM|   ~~~~~~
  E E S S +E  E E S S +E    E E S S +E  E E S S +E
|-------------------------|----------------------------||
|-------------------------|---------------------------o||
|-------------------------|----------------------------||
|-------------------------|----------------------------||
|-----6-5-(5)-----6-5-(5)-|-----6-5-(5)-----6-5-(5)---o||
|-0-0---------0-0---------|-0-0---------0-0------------||
|
| PM|         PM|           PM|         PM|
| E E Q       E E Q         E E Q       E E Q
|-------------------------|----------------------------||
|-------------------------|---------------------------o||
|-------------------------|----------------------------||
|-------------------------|----------------------------||
|-0-0---------0-0---------|-0-0---------0-0-----------o||
|-0-0---------0-0---------|-0-0---------0-0------------||


  T T T T E E T T T T E E T T T T E   T T T T E E T T T T E E T T T T E
|-----------------------------------|------------------------------------|
|-----------------------------------|------------------------------------|
|-----------------------------------|------------------------------------|
|-----------------------------------|------------------------------------|
|-4h5h6-------4h5h6-------4h5h6-----|-4h5h6-------4h5h6-------4h5h6------|
|-0-----------0-----------0---------|-0-----------0-----------0----------|
|
| T T T T E E T T T T E E T T T T E   T T T T E E T T T T E E T T T T E
|-----------------------------------|------------------------------------|
|-----------------------------------|------------------------------------|
|-----------------------------------|------------------------------------|
|-----------------------------------|------------------------------------|
|-4h5h6-------4h5h6-------4h5h6-----|-4h5h6-------4h5h6-------4h5h6------|
|-0-----------0-----------0---------|-0-----------0-----------0----------|


    D5                                      Eb5
    PM------------------------------------|
    s e s e s e s e s e s   e s e s e s e s S S E
||------------------------|-----------------------|
||o-----------------------|-----------------------|
||------------------------|-----------------------|
||------------------------|-----------------------|
||o-0-0-0-0-0-0-0-0-0-0-0-|-0-0-0-0-0-0-0-0-1-1-1-|
||--0-0-0-0-0-0-0-0-0-0-0-|-0-0-0-0-0-0-0-0-1-1-1-|
|
|   PM------------------------------------|
|   s e s e s e s e s e s   e s e s e s e s S S E
||------------------------|-----------------------|
||o-----------------------|-----------------------|
||------------------------|-----------------------|
||------------------------|-----------------------|
||o-0-0-0-0-0-0-0-0-0-0-0-|-0-0-0-0-0-0-0-0-1-1-1-|
||--0-0-0-0-0-0-0-0-0-0-0-|-0-0-0-0-0-0-0-0-1-1-1-|


  D5                                      Eb5
  PM------------------------------------|
  s e s e s e s e s e s   e s e s e s e s S S E
|-----------------------|--------------------------||
|-----------------------|-------------------------o||
|-----------------------|--------------------------||
|-----------------------|--------------------------||
|-0-0-0-0-0-0-0-0-0-0-0-|-0-0-0-0-0-0-0-0-1-1-1---o||
|-0-0-0-0-0-0-0-0-0-0-0-|-0-0-0-0-0-0-0-0-1-1-1----||
|
| PM------------------------------------|
| s e s e s e s e s e s   e s e s e s e s S S E
|-----------------------|--------------------------||
|-----------------------|-------------------------o||
|-----------------------|--------------------------||
|-----------------------|--------------------------||
|-0-0-0-0-0-0-0-0-0-0-0-|-0-0-0-0-0-0-0-0-1-1-1---o||
|-0-0-0-0-0-0-0-0-0-0-0-|-0-0-0-0-0-0-0-0-1-1-1----||


  Eb5
  S S S S S S S S S S S S S S S S   S S S S S S S S S S S S S S S S
|---------------------------------|---------------------------------|
|---------------------------------|---------------------------------|
|---------------------------------|---------------------------------|
|---------------------------------|---------------------------------|
|-1-1-1-1-1-1-1-1-1-1-1-1-1-1-1-1-|-1-1-1-1-1-1-1-1-1-1-1-1-1-1-1-1-|
|-1-1-1-1-1-1-1-1-1-1-1-1-1-1-1-1-|-1-1-1-1-1-1-1-1-1-1-1-1-1-1-1-1-|
|
| S S S S S S S S S S S S S S S S   S S S S S S S S S S S S S S S S
|---------------------------------|---------------------------------|
|---------------------------------|---------------------------------|
|---------------------------------|---------------------------------|
|-1-1-1-1-1-1-1-1-1-1-1-1-1-1-1-1-|-1-1-1-1-1-1-1-1-1-1-1-1-1-1-1-1-|
|-1-1-1-1-1-1-1-1-1-1-1-1-1-1-1-1-|-1-1-1-1-1-1-1-1-1-1-1-1-1-1-1-1-|
|-1-1-1-1-1-1-1-1-1-1-1-1-1-1-1-1-|-1-1-1-1-1-1-1-1-1-1-1-1-1-1-1-1-|


  D5
  T T T T Q   T T T T Q   T T T T E   T T T T S S S  S S S S S S S S S S S
|-----------------------------------|--------------------------------------|
|-----------------------------------|--------------------------------------|
|-----------------------------------|--------------------------------------|
|-----------------------------------|--------------------------------------|
|-4h5h6-------4h5h6-------4h5h6-----|-4h5h6--------------------------------|
|-0-----------0-----------0---------|-0-------1-1-1--1-1-0-1-1-1-1-0-1-1-1-|
|
| T T T T Q   T T T T Q   T T T T E   T T T T E   H.
|-----------------------------------|--------------------------------------|
|-----------------------------------|--------------------------------------|
|-----------------------------------|--------------------------------------|
|-----------------------------------|--------------------------------------|
|-4h5h6-------4h5h6-------4h5h6-----|-4h5h6--------------------------------|
|-0-----------0-----------0---------|-0------------------------------------|
  S.    T E E S.    T E E S.    T E


 Chorus III
  D5                                F5
  S S S S S S S S S S S S S S S S   S S S S S S S S S S S S S S S S
|---------------------------------|---------------------------------|
|---------------------------------|---------------------------------|
|---------------------------------|---------------------------------|
|---------------------------------|---------------------------------|
|-0-0-0-0-0-0-0-0-0-0-0-0-0-0-0-0-|-3-3-3-3-3-3-3-3-3-3-3-3-3-3-3-3-|
|-0-0-0-0-0-0-0-0-0-0-0-0-0-0-0-0-|-3-3-3-3-3-3-3-3-3-3-3-3-3-3-3-3-|
|
| S S S S S S S S S S S S S S S S   S S S S S S S S S S S S S S S S
|---------------------------------|---------------------------------|
|---------------------------------|---------------------------------|
|---------------------------------|---------------------------------|
|---------------------------------|---------------------------------|
|---------------------------------|---------------------------------|
|-0-0-0-0-0-0-0-0-0-0-0-0-0-0-0-0-|-3-3-3-3-3-3-3-3-3-3-3-3-3-3-3-3-|


  Eb5
  S S S S S S S S S S S S  Q      S  S  S  S  S  S  S  S  S  S  S  S  Q
|------------------------------|-----------------------------------------------------|
|------------------------------|-----------------------------------------------------|
|------------------------------|-----------------------------------------------------|
|------------------------------|-----------------------------------------------------|
|-1---1-1---1-1---1-1---1-13\--|-12-13-13-12-13-13-12-13-13-12-13-13-12\-------------|
|-1---1-1---1-1---1-1---1-13\--|-12-13-13-12-13-13-12-13-13-12-13-13-12\-------------|
|
| S S S S S S S S S S S S  Q      S  S  S  S  S  S  S  S  S  S  S  S  S   S  S  S
|------------------------------|-----------------------------------------------------|
|------------------------------|-----------------------------------------------------|
|------------------------------|-----------------------------------------------------|
|------------------------------|-----------------------------------------------------|
|-1---1-1---1-1---1-1---1-13\--|-----------------------------------------------------|
|-1---1-1---1-1---1-1---1-13\--|-12-13-13-12-13-13-12-13-13-12-13-13-12--13-13-13----|


  D5                                F5
  S S S S S S S S S S S S S S S S   S S S S S S S S S S S S S S S S
|---------------------------------|---------------------------------|
|---------------------------------|---------------------------------|
|---------------------------------|---------------------------------|
|---------------------------------|---------------------------------|
|-0-0-0-0-0-0-0-0-0-0-0-0-0-0-0-0-|-3-3-3-3-3-3-3-3-3-3-3-3-3-3-3-3-|
|-0-0-0-0-0-0-0-0-0-0-0-0-0-0-0-0-|-3-3-3-3-3-3-3-3-3-3-3-3-3-3-3-3-|
|
| S S S S S S S S S S S S S S S S   S S S S S S S S S S S S S S S S
|---------------------------------|---------------------------------|
|---------------------------------|---------------------------------|
|---------------------------------|---------------------------------|
|---------------------------------|---------------------------------|
|---------------------------------|---------------------------------|
|-0-0-0-0-0-0-0-0-0-0-0-0-0-0-0-0-|-3-3-3-3-3-3-3-3-3-3-3-3-3-3-3-3-|


  Eb5
  S S S S S S S S S S S S  Q      S  S  S  S  S  S  S  S  S  S  S  S  Q
|------------------------------|-----------------------------------------------------|
|------------------------------|-----------------------------------------------------|
|------------------------------|-----------------------------------------------------|
|------------------------------|-----------------------------------------------------|
|-1-1---1-1---1-1---1-1---13\--|-12-13-13-12-13-13-12-13-13-12-13-13-12\-------------|
|-1-1---1-1---1-1---1-1---13\--|-12-13-13-12-13-13-12-13-13-12-13-13-12\-------------|
|
| S S S S S S S S S S S S  Q      S  S  S  S  S  S  S  S  S  S  S  S  S   S  S  S
|------------------------------|-----------------------------------------------------|
|------------------------------|-----------------------------------------------------|
|------------------------------|-----------------------------------------------------|
|------------------------------|-----------------------------------------------------|
|-1-1---1-1---1-1---1-1---13\--|-----------------------------------------------------|
|-1-1---1-1---1-1---1-1---13\--|-12-13-13-13-12-13-13-13-13-13-13-13-12--13-13-13----|


  D5
  S S S S S S S S H      S S S S S S S S H
|----------------------|----------------------|
|----------------------|----------------------|
|----------------------|----------------------|
|-0-0-0-0-0-0-0-0------|-0-0-0-0-0-0-0-0------|
|-0-0-0-0-0-0-0-0------|-0-0-0-0-0-0-0-0------|
|-0-0-0-0-0-0-0-0------|-0-0-0-0-0-0-0-0------|
|
| S S S S S S S S H      S S S S S S S S H
|----------------------|----------------------|
|----------------------|----------------------|
|----------------------|----------------------|
|-0-0-0-0-0-0-0-0------|-0-0-0-0-0-0-0-0------|
|-0-0-0-0-0-0-0-0------|-0-0-0-0-0-0-0-0------|
|-0-0-0-0-0-0-0-0------|-0-0-0-0-0-0-0-0------|


 Chorus IV
  D5                                F5
  S S S S S S S S S S S S S S S S   S S S S S S S S S S S S S S S S
|---------------------------------|---------------------------------|
|---------------------------------|---------------------------------|
|---------------------------------|---------------------------------|
|---------------------------------|---------------------------------|
|-0-0-0-0-0-0-0-0-0-0-0-0-0-0-0-0-|-3-3-3-3-3-3-3-3-3-3-3-3-3-3-3-3-|
|-0-0-0-0-0-0-0-0-0-0-0-0-0-0-0-0-|-3-3-3-3-3-3-3-3-3-3-3-3-3-3-3-3-|
|
| S S S S S S S S S S S S S S S S   S S S S S S S S S S S S S S S S
|---------------------------------|---------------------------------|
|---------------------------------|---------------------------------|
|---------------------------------|---------------------------------|
|---------------------------------|---------------------------------|
|---------------------------------|---------------------------------|
|-0-0-0-0-0-0-0-0-0-0-0-0-0-0-0-0-|-3-3-3-3-3-3-3-3-3-3-3-3-3-3-3-3-|


  Eb5
  S S S S S S S S S S S S  Q      S  S  S  S  S  S  S  S  S  S  S  S  Q
|------------------------------|-----------------------------------------------------|
|------------------------------|-----------------------------------------------------|
|------------------------------|-----------------------------------------------------|
|------------------------------|-----------------------------------------------------|
|-1---1-1---1-1---1-1---1-13\--|-12-13-13-12-13-13-12-13-13-12-13-13-12\-------------|
|-1---1-1---1-1---1-1---1-13\--|-12-13-13-12-13-13-12-13-13-12-13-13-12\-------------|
|
| S S E   E   S S E   S S  Q      S  S  S  S  S  S  S  S  S  S  S  S  S   S  S  S
|------------------------------|-----------------------------------------------------|
|------------------------------|-----------------------------------------------------|
|------------------------------|-----------------------------------------------------|
|------------------------------|-----------------------------------------------------|
|-1-1-1-------1-1-----1-1------|-----------------------------------------------------|
|-1-1-1-------1-1-----1-1------|-12-13-13-13-12-13-13-13-13-13-13-13-12--13-13-13----|


  D5                                F5
  S S S S S S S S S S S S S S S S   S S S S S S S S S S S S S S S S
|---------------------------------|---------------------------------|
|---------------------------------|---------------------------------|
|---------------------------------|---------------------------------|
|---------------------------------|---------------------------------|
|-0-0-0-0-0-0-0-0-0-0-0-0-0-0-0-0-|-3-3-3-3-3-3-3-3-3-3-3-3-3-3-3-3-|
|-0-0-0-0-0-0-0-0-0-0-0-0-0-0-0-0-|-3-3-3-3-3-3-3-3-3-3-3-3-3-3-3-3-|
|
| S S S S S S S S S S S S S S S S   S S S S S S S S S S S S S S S S
|---------------------------------|---------------------------------|
|---------------------------------|---------------------------------|
|---------------------------------|---------------------------------|
|---------------------------------|---------------------------------|
|---------------------------------|---------------------------------|
|-0-0-0-0-0-0-0-0-0-0-0-0-0-0-0-0-|-3-3-3-3-3-3-3-3-3-3-3-3-3-3-3-3-|


  Eb5
  S S S S S S S S S S S S  Q         S  S  S  S  S  S  S  S  S  S  S  S  Q
|---------------------------------|-----------------------------------------------------|
|---------------------------------|-----------------------------------------------------|
|---------------------------------|-----------------------------------------------------|
|---------------------------------|-----------------------------------------------------|
|-1-1---1-1---1-1---1-1---13\-----|-12-13-13-12-13-13-12-13-13-12-13-13-12\-------------|
|-1-1---1-1---1-1---1-1---13\-----|-12-13-13-12-13-13-12-13-13-12-13-13-12\-------------|
|
| S S S S S S S S S S S S  S  S E    S  S  S  S  S  S  S  S  S  S  S  S  S   S  S  S
|---------------------------------|-----------------------------------------------------|
|---------------------------------|-----------------------------------------------------|
|---------------------------------|-----------------------------------------------------|
|---------------------------------|-----------------------------------------------------|
|-1-1---1-1---1-1---1-1----1--1---|-----------------------------------------------------|
|-1-1---1-1---1-1---1-1----1--1---|-12-13-13-13-12-13-13-13-13-13-13-13-12--13-13-13----|


 Outro
  D5            Eb5     D5            Eb5
  PM|   ~ PM--|         PM|   ~ PM--|
  e e S E s e e Q       e e S E s e e Q
|---------------------|---------------------|
|---------------------|---------------------|
|---------------------|---------------------|
|---------------1-----|---------------1-----|
|-0-0-6p5-0-0-0-1-----|-0-0-6p5-0-0-0-1-----|
|-0-0-----0-0-0-1-----|-0-0-----0-0-0-1-----|
|
|       ~                     ~
| E E S E S E E E.  S   E E S E S E E E.  S
|---------------------|---------------------|
|---------------------|---------------------|
|---------------------|---------------------|
|---------------1--!1-|---------------1--!1-|
|-----6p5-------1--!1-|-----6p5-------1--!1-|
|-0-0-----0-0-0-1--!1-|-0-0-----0-0-0-1--!1-|


  D5            Eb5     D5            Eb5
  PM|   ~ PM--|         PM|   ~ PM--|
  e e S E s e e Q       e e S E s e e Q
|---------------------|-----------------------|
|---------------------|-----------------------|
|---------------------|-----------------------|
|---------------1-----|---------------1-------|
|-0-0-6p5-0-0-0-1-----|-0-0-6p5-0-0-0-1-------|
|-0-0-----0-0-0-1-----|-0-0-----0-0-0-1-------|
|
|       ~                     ~
| E E S E S E E E.  S   E E S E S E E E.  S
|---------------------|-----------------------|
|---------------------|-----------------------|
|---------------------|-----------------------|
|---------------1--!1-|---------------1--!1---|
|-----6p5-------1--!1-|-----6p5-------1--!1---|
|-0-0-----0-0-0-1--!1-|-0-0-----0-0-0-1--!1---|


  E   E   H.                         W
|----------------------------------|---------------------------------*|
|----------------------------------|---------------------------------*|
|----------------------------------|---------------------------------*|
|----------------------------------|---------------------------------*|
|-5--------------------------------|---------------------------------*|
|-0--------------------------------|---------------------------------*|
|
| S S S S S  S S S S S S S S S S S   S S S S S S S S S S S S S S S S
|----------------------------------|---------------------------------*|
|----------------------------------|---------------------------------*|
|-x-x-x-x-x--x-x-x-x-x-x-x-x-x-x-x-|-x-x-x-x-x-x-x-x-x-x-x-x-x-x-x-x-*|
|-x-x-x-x-x--x-x-x-x-x-x-x-x-x-x-x-|-x-x-x-x-x-x-x-x-x-x-x-x-x-x-x-x-*|
|-x-x-x-x-x--x-x-x-x-x-x-x-x-x-x-x-|-x-x-x-x-x-x-x-x-x-x-x-x-x-x-x-x-*|
|----------------------------------|---------------------------------*|


Duration Legend
---------------
W - whole; H - half; Q - quarter; E - 8th; S - 16th; T - 32nd; X - 64th; a - acciaccatura
+ - note tied to previous; . - note dotted; .. - note double dotted
Uncapitalized letters represent notes that are staccato (1/2 duration)
Irregular groupings are notated above the duration line
Duration letters will always appear directly above the note/fret number it represents the
duration for.  Duration letters with no fret number below them represent rests.  Multi-
bar rests are notated in the form Wxn, where n is the number of bars to rest for.  Low
melody durations appear below the staff

Tablature Legend
----------------
 h   - hammer-on
 p   - pull-off
 b   - bend
 pb  - pre-bend
 r   - bend release (if no number after the r, then release immediately)
 /\  - slide into or out of (from/to "nowhere")
 s   - legato slide
 S   - shift slide
<n>  - natural harmonic
[n]  - artificial harmonic
n(n) - tapped harmonic
 ~   - vibrato
 tr  - trill
 T   - tap
 TP  - trem. picking
 PM  - palm muting
\n/  - tremolo bar dip; n = amount to dip
 \n  - tremolo bar down
 n/  - tremolo bar up
/n\  - tremolo bar inverted dip
 =   - hold bend; also acts as connecting device for hammers/pulls
 <>  - volume swell (louder/softer)
 x   - on rhythm slash represents muted slash
 o   - on rhythm slash represents single note slash

Misc Legend
-----------
 |  - bar
||  - double bar
||o - repeat start
o|| - repeat end
*|  - double bar (ending)
 :  - bar (freetime)
 $  - Segno
 &  - Coda
Tempo markers - <E/E./Q/Q./H/H.> = BPM(8/16=s8/s16), where s8 = swing 8ths, s16 = swing 16ths


***************************************************************************************
* Generated using Power Tab Editor by Brad Larsen - http://powertab.guitarnetwork.org *
***************************************************************************************
comments
print report bad tab
7 comments total. Showing first comments.
0 reply
guitarman47 wrote on August 17 2005, 12:00 am

is he using an effect in the beginning?

0 reply
.:LoCo:. wrote on April 16 2006, 08:10 am

yeah Kirk uses a Wah wah pedal

0 reply
.:LoCo:. wrote on April 16 2006, 08:11 am

or it would just be easier just to use a Flange or Phaser

I want to post or [tab]
guest
You may want to rate the tab now too:
select rating
Please do not post tabs as comments. Select "correction" instead!