Oops, an error
Loading. Please wait.

Some Kind Of Monster Tab

ver2
ver2

Whole song

More versions @911Tabs.com
22,323 views 60 this week
11 commentsread comments
1 2 3 4 5
accurate
x 20
Autoscroll
+/-
esc
set tempo
stop
Contributor
Hey! There's an official Ultimate Guitar app which is ideal
for learning songs when you're away from computer. Get the app
WARNING: You are trying to view
                                    content from Ultimate-Guitar.com
                                    in an unauthorized application,
                                    which is prohibited.

                                    Please use an official Ultimate
                                    Guitar Tabs application for iPhone,
                                    iPad or Android to access legitimate
                                    chords, guitar, bass, and drum tabs
                                    from Ultimate-Guitar.com database.

                                    Type "ultimate guitar tabs" in Apple
                                    App Store's or Android Market's
                                    search to find the application.
"Some kind of monster"

by Metallica
written by Hetfield/Ulrich/Hammett/Rock

available on "St. Anger" album

tabbed by Tero Saikkonen from Finland
tsslayer@luukku.com
www.pureheavymetal.cjb.net


Guitars Dropped-C tuning (Strings on D) 
(like all songs in "st. Anger" album, except 
"Dirty Window"(D# dropped-C#) "Invisible Kid"(A# dropped-G#)
 and "The Unnamed Feeling"(C dropped-A#))
(* Hetfield uses 7-string)

6=C 3=F
5=G 2=A
4=C 1=D


INTRO /acoustic
|------------------------------------------------------|
|------------------------------------------------------|
|------------------------------------------------------|
|------------------------------------------------------|
|-0----0-0----3--5--0------0--3--5--0--3--5--0--3--5---|
|-0----0-0----3--5--0------0--3--5--0--3--5--0--3--5---|



|------------------------------------------------------|
|------------------------------------------------------|
|------------------------------------------------------|
|------------------------------------------------------|
|-0----0-0----3--5--0------0--3--5--0--3--5--0---------|
|-0----0-0----3--5--0------0--3--5--0--3--5--0---------|



|------------------------------------------------------|
|------------------------------------------------------|
|------------------------------------------------------|
|------------------------------------------------------|
|-0----0-0----3--5--0------0--3--5--0--3--5--0--3---_--|
|-0----0-0----3--5--0------0--3--5--0--3--5--0--3--785-|



|------------------------------------------------------|
|------------------------------------------------------|
|------------------------------------------------------|
|------------------------------------------------------|
|-0----0-0----3--5--0------0--3--5--0--3--5--0---------|
|-0----0-0----3--5--0------0--3--5--0--3--5--0---------|



ALL BAND
MAINRIFF /distortion
                    P.M._____       __       __|
|-----------------------------------------------------| -4-
|-----------------------------------------------------|  T
|-----------------------------------------------------|  I
|-----------------------------------------------------|  M
|-0----0-0----3--5--0------0--3--5--0--3--5--0--3--5--|  E
|-0----0-0----3--5--0------0--3--5--0--3--5--0--3--5--|  S



|-------------------|
|-------------------|
|-------------------|
|-------------------|
|-3-3-3-------------|
|-3-3-3-------------|


GTR I
|--------------------------------------------------| 
|--------------------------------------------------|  
|--------------------------------------------------|  
|--------------------------------------------------|  
|-5--0-----------------------------3-3-3-----------|  -2-
|-5--0-----------------------------3-3-3-----------|   T
|                                                  |   I 
|GTR II                                            |   M
|--------------------------------------------------|   E
|-----------------------8--------------------------|   S
|-----------------------7--------------------------|
|--------------------------------------------------|
|--------------------------------------------------|
|--------------------------------------------------|


                           _________________________________________________
GTR I                     |1,2,3 times             |4th time                |
|--------------------------------------------------|------------------------|
|--------------------------------------------------|------------------------|
|--------------------------------------------------|------------------------|
|--------------------------------------------------|------------------------|
|-5--0-----------------------------3-3-3-----------|--------3-3-3-----------| -4-
|-5--0-----------------------------3-3-3-----------|--------3-3-3-----------|  T
|                                                  |                        |  I
|GTR II                                            |                        |  M
|--------------------------------------------------|-½----------------------|  E
|--------------------|--------------------|--------|-|----------------------|  S
|-------------10----12-------------10----12--------|-12---------------------|
|----12----12-------------12----12-----------------|------------------------|
|--------------------------------------------------|--------3-3-3-----------|
|--------------------------------------------------|--------3-3-3-----------|




  P.M.___________         ____________________________         _______________|
|-----------------------------------------------------------------------------------|-2-
|-----------------------------------------------------------------------------------| T
|-----------------------------------------------------------------------------------| I
|-----------------------------------------------------------------------------------| M
|-0-0-0-0-0-0-0-0-3---5---0--------0---0-0-0-0-0-0-0-0-0---3---0-0-0-0-0-0-0-0-3---5| E
|-0-0-0-0-0-0-0-0-3---5---0--------0---0-0-0-0-0-0-0-0-0---3---0-0-0-0-0-0-0-0-3---5| S



|-------------------|
|-------------------|
|-------------------|
|-------------------|
|-3-3-3-------------|
|-3-3-3-------------|

                           _________________________________________________
GTR I                     |1,2,3 times             |4th time                |
|--------------------------------------------------|------------------------|
|--------------------------------------------------|------------------------|
|--------------------------------------------------|------------------------|
|--------------------------------------------------|------------------------|
|-5--0-----------------------------3-3-3-----------|--------3-3-3-----------| -4-
|-5--0-----------------------------3-3-3-----------|--------3-3-3-----------|  T
|                                                  |                        |  I
|GTR II                                            |                        |  M
|--------------------------------------------------|-½----------------------|  E
|--------------------|--------------------|--------|-|----------------------|  S
|-------------10----12-------------10----12--------|-12---------------------|
|----12----12-------------12----12-----------------|------------------------|
|--------------------------------------------------|--------3-3-3-----------|
|--------------------------------------------------|--------3-3-3-----------|


GTR I
|--------------------------------------------------| 
|--------------------------------------------------|  
|--------------------------------------------------|  
|--------------------------------------------------|  
|-5--0-----------------------------3-3-3-----------|  -2-
|-5--0-----------------------------3-3-3-----------|   T
|                                                  |   I 
|GTR II                                            |   M
|--------------------------------------------------|   E
|-----------------------8--------------------------|   S
|-----------------------7--------------------------|
|--------------------------------------------------|
|--------------------------------------------------|
|--------------------------------------------------|


  P.M.___________         ____________________________         _______________|
|-----------------------------------------------------------------------------------|-2-
|-----------------------------------------------------------------------------------| T
|-----------------------------------------------------------------------------------| I
|-----------------------------------------------------------------------------------| M
|-0-0-0-0-0-0-0-0-3---5---0--------0---0-0-0-0-0-0-0-0-0---3---0-0-0-0-0-0-0-0-3---5| E
|-0-0-0-0-0-0-0-0-3---5---0--------0---0-0-0-0-0-0-0-0-0---3---0-0-0-0-0-0-0-0-3---5| S



OTHER GUITARS TACET (silence)
GTR I plays:
|--------------------------------------|-2-
|--------------------------------------| T
|--------------------------------------| I
|--------------------------------------| M
|----------_--------------_------------| E
|-0----0-10-12-----0----10-12---0------| S


BAND IN

|--------------------------------------|-4-
|--------------------------------------| T
|--------------------------------------| I
|--------------------------------------| M
|-0--------_-------0----------_--------| E
|-0----0-10-12-----0----10-12---0------| S



VERSE

  ("These are the eyes that can´t see me...")
GTR I
| |---------------------------------------------------------------------------
| |--------------------------------------------------------------------------- 
| |--------------------------------------------------------------------------- 
| |--------------------------------------------------------------------------- 
|o|-0--------_-------0----------_--------0----------------0------------------- 
| |-0----0-10-12-----0----10-12---0------0----0-10-12-----0----10-12---0------ 
| |                                                                           
| GTR II            wh/effect                                                 
| |---------------------------------------------------------------------------
|o|---------------------------------------------------------------------------
| |-----------------full*-----------------------------------------------------
| |-----------------|---------------------------------------------------------
| |-----------------6---------------------------------------------------------
| |---------------------------------------------------------------------------
                        (* notice that when there reads "full", you have to pull
			hole step that note. in this case, 6 pulls to 8. So the
			sound is --8--) 

GTR I
---------------------------------------------------------------------------| |
---------------------------------------------------------------------------| |
---------------------------------------------------------------------------| |
---------------------------------------------------------------------------| |  (<-times)
-0--------_-------0----------_--------0----------------0-------------------|o|
-0----0-10-12-----0----10-12---0------0----0-10-12-----0----10-12---0------| |
                                                                           | |
GTR II            wh/effect                                                | |
---------------------------------------------------------------------------| |
---------------------------------------------------------------------------|o|
------------------full-----------------------------------------------------| |
------------------|--------------------------------------------------------| |
------------------5--------------------------------------------------------| |
---------------------------------------------------------------------------| |




|--------------------------------------|
|--------------------------------------|
|--------------------------------------|
|--------------------------------------|
|----------_------------------_--------|
|-0----0-10-12-----0----10-12---0------|


 P.M._______________________________|
|---------------------------------------|
|---------------------------------------|
|---------------------------------------|
|---------------------------------------|
|-0----0----3-3-0----0----0----3-3-0----|
|-0----0----3-3-0----0----0----3-3-0----|



GTR I         P.M._____________________________________________|
|-----------------------------------------------------------------|
|-----------------------------------------------------------------|
|-----------------------------------------------------------------|
|-----------------------------------------------------------------|
|-0----0-3----0---0----0-0----0---0----0-0----0---0----0-0----0---| -2-
|-0----0-3----0---0----0-0----0---0----0-0----0---0----0-0----0---|  T
|                                                                 |  I
GTR II                                                            |  M
|---------½---------------½---------------½---------------½-------|  E
|---------|---------------|---------------|---------------|-------|  S
|--------10--------------10--------------10--------------10-------|
|-----------------------------------------------------------------|
|-----------------------------------------------------------------|
|-----------------------------------------------------------------|



|--------------------------------------|
|--------------------------------------|
|--------------------------------------|
|--------------------------------------|
|----------_------------------_--------|
|-0----0-10-12-----0----10-12---0------|



VERSE

  ("These are the legs in circles run...")
GTR I
| |---------------------------------------------------------------------------
| |---------------------------------------------------------------------------
| |---------------------------------------------------------------------------
| |---------------------------------------------------------------------------
|o|-0--------_-------0----------_--------0----------------0-------------------
| |-0----0-10-12-----0----10-12---0------0----0-10-12-----0----10-12---0------
| |                                                                           
| GTR II            wh/effect                                                 
| |---------------------------------------------------------------------------
|o|---------------------------------------------------------------------------
| |-----------------full*-----------------------------------------------------
| |-----------------|---------------------------------------------------------
| |-----------------6---------------------------------------------------------
| |---------------------------------------------------------------------------
                        (* notice that when there reads "full", you have to pull
			hole step that note. in this case, 6 pulls to 8. So the
			sound is --8--) 

GTR I
---------------------------------------------------------------------------| |
---------------------------------------------------------------------------| |
---------------------------------------------------------------------------| |
---------------------------------------------------------------------------| |  (<-times)
-0--------_-------0----------_--------0----------------0-------------------|o|
-0----0-10-12-----0----10-12---0------0----0-10-12-----0----10-12---0------| |
                                                                           | |
GTR II -PLAY GTR II THIS ONLY ONE TIME, 2ND TIME PLAY SAME LIKE GTR I DOES-| |
---------------------------------------------------------------------------| |
---------------------------------------------------------------------------|o|
------------------full-----------------------------------------------------| |
------------------|--------------------------------------------------------| |
------------------5--------------------------------------------------------| |
---------------------------------------------------------------------------| |


  HP.M.__________________|
|---------------------------------------| -2-
|---------------------------------------|  T
|---------------------------------------|  I
|---------------------------------------|  M
|-0-----0-----0---0-----0--1-(1)-2-(2)--|  E
|-0-----0-----0---0-----0--1-(1)-2-(2)--|  S



("We the people......")
| |-----------------------------------------------------------------------| |
|o|-----------------------------------------------------------------------|o|
| |-----------------------------------------------------------------------| |
| |-----------------------------------------------------------------------| |
|o|-0------------------------------------------------3---5-0-0---5--3---5-|o|
| |-0------------------------------------------------3---5-0-0---5--3---5-| |



|--------------------------------------------------
|--------------------------------------------------
|--------------------------------------------------
|--------------------------------------------------
|-0------3---5-0-0----3---5-0-0----3---5-0-3---5---
|-0------3---5-0-0----3---5-0-0----3---5-0-3---5---


---------------------------------------------------------|
---------------------------------------------------------|
---------------------------------------------------------|
---------------------------------------------------------|
-3---5-0-0----3---5-0-0-----3---5-0-0----3---5-0-0---5---|
-3---5-0-0----3---5-0-0-----3---5-0-0----3---5-0-0---5---|


  HP.M.__________________|
|---------------------------------------| -2-
|---------------------------------------|  T
|---------------------------------------|  I
|---------------------------------------|  M
|-0-----0-----0---0-----0--1-(1)-2-(2)--|  E
|-0-----0-----0---0-----0--1-(1)-2-(2)--|  S


MAINRIFF

                           ("Somekind of monster......")
                    P.M._____       __       __|
|-----------------------------------------------------| -4-
|-----------------------------------------------------|  T
|-----------------------------------------------------|  I
|-----------------------------------------------------|  M
|-0----0-0----3--5--0------0--3--5--0--3--5--0--3--5--|  E
|-0----0-0----3--5--0------0--3--5--0--3--5--0--3--5--|  S


  P.M.___________         ____________________________         _______________|
|------------------------------------------------------------------------------------|-2-
|------------------------------------------------------------------------------------| T
|------------------------------------------------------------------------------------| I
|------------------------------------------------------------------------------------| M
|-0-0-0-0-0-0-0-0-3---5---0--------0---0-0-0-0-0-0-0-0-0---3---0-0-0-0-0-0-0-0-3---5-| E
|-0-0-0-0-0-0-0-0-3---5---0--------0---0-0-0-0-0-0-0-0-0---3---0-0-0-0-0-0-0-0-3---5-| S




GTR I plays:
|--------------------------------------|-2-
|--------------------------------------| T
|--------------------------------------| I
|--------------------------------------| M
|----------_------------------_--------| E
|-0----0-10-12-----0----10-12---0------| S



BAND IN

|--------------------------------------|-4-
|--------------------------------------| T
|--------------------------------------| I
|--------------------------------------| M
|-0--------_-------0----------_--------| E
|-0----0-10-12-----0----10-12---0------| S


VERSE

  ("This is the face that stones you cold...")
GTR I
| |---------------------------------------------------------------------------
| |--------------------------------------------------------------------------- 
| |--------------------------------------------------------------------------- 
| |--------------------------------------------------------------------------- 
|o|-0--------_-------0----------_--------0----------------0------------------- 
| |-0----0-10-12-----0----10-12---0------0----0-10-12-----0----10-12---0------ 
| |                                                                           
| GTR II            wh/effect                                                 
| |---------------------------------------------------------------------------
|o|---------------------------------------------------------------------------
| |-----------------full*-----------------------------------------------------
| |-----------------|---------------------------------------------------------
| |-----------------6---------------------------------------------------------
| |---------------------------------------------------------------------------
                        (* notice that when there reads "full", you have to pull
			hole step that note. in this case, 6 pulls to 8. So the
			sound is --8--) 

GTR I
---------------------------------------------------------------------------| |
---------------------------------------------------------------------------| |
---------------------------------------------------------------------------| |
---------------------------------------------------------------------------| |  (<-times)
-0--------_-------0----------_--------0----------------0-------------------|o|
-0----0-10-12-----0----10-12---0------0----0-10-12-----0----10-12---0------| |
                                                                           | |
GTR II            wh/effect                                                | |
---------------------------------------------------------------------------| |
---------------------------------------------------------------------------|o|
------------------full-----------------------------------------------------| |
------------------|--------------------------------------------------------| |
------------------5--------------------------------------------------------| |
---------------------------------------------------------------------------| |




|--------------------------------------|
|--------------------------------------|
|--------------------------------------|
|--------------------------------------|
|----------_------------------_--------|
|-0----0-10-12-----0----10-12---0------|


 P.M._______________________________|
|---------------------------------------|
|---------------------------------------|
|---------------------------------------|
|---------------------------------------|
|-0----0----3-3-0----0----0----3-3-0----|
|-0----0----3-3-0----0----0----3-3-0----|



GTR I         P.M._____________________________________________|
|-----------------------------------------------------------------|
|-----------------------------------------------------------------|
|-----------------------------------------------------------------|
|-----------------------------------------------------------------|
|-0----0-3----0---0----0-0----0---0----0-0----0---0----0-0----0---| -2-
|-0----0-3----0---0----0-0----0---0----0-0----0---0----0-0----0---|  T
|                                                                 |  I
GTR II                                                            |  M
|---------½---------------½---------------½---------------½-------|  E
|---------|---------------|---------------|---------------|-------|  S
|--------10--------------10--------------10--------------10-------|
|-----------------------------------------------------------------|
|-----------------------------------------------------------------|
|-----------------------------------------------------------------|



|--------------------------------------|
|--------------------------------------|
|--------------------------------------|
|--------------------------------------|
|----------_------------------_--------|
|-0----0-10-12-----0----10-12---0------|



VERSE

  ("This is the test of flesh and soul...")
GTR I
| |---------------------------------------------------------------------------
| |---------------------------------------------------------------------------
| |---------------------------------------------------------------------------
| |---------------------------------------------------------------------------
|o|-0--------_-------0----------_--------0----------------0-------------------
| |-0----0-10-12-----0----10-12---0------0----0-10-12-----0----10-12---0------
| |
| GTR II            wh/effect
| |---------------------------------------------------------------------------
|o|---------------------------------------------------------------------------
| |-----------------full*-----------------------------------------------------
| |-----------------|---------------------------------------------------------
| |-----------------6---------------------------------------------------------
| |---------------------------------------------------------------------------
                        (* notice that when there reads "full", you have to pull
			hole step that note. in this case, 6 pulls to 8.
			                                  So the sound is --8--) 

GTR I
---------------------------------------------------------------------------| |
---------------------------------------------------------------------------| |
---------------------------------------------------------------------------| |
---------------------------------------------------------------------------| |   (<-times)
-0--------_-------0----------_--------0----------------0-------------------|o|
-0----0-10-12-----0----10-12---0------0----0-10-12-----0----10-12---0------| |
                                                                           | |
GTR II -PLAY GTR II THIS ONLY ONE TIME, 2ND TIME PLAY SAME LIKE GTR I DOES-| |
---------------------------------------------------------------------------| |
---------------------------------------------------------------------------|o|
------------------full-----------------------------------------------------| |
------------------|--------------------------------------------------------| |
------------------5--------------------------------------------------------| |
---------------------------------------------------------------------------| |



  HP.M.__________________|
|---------------------------------------| -2-
|---------------------------------------|  T
|---------------------------------------|  I
|---------------------------------------|  M
|-0-----0-----0---0-----0--1-(1)-2-(2)--|  E
|-0-----0-----0---0-----0--1-(1)-2-(2)--|  S



("We the people......")
| |-----------------------------------------------------------------------| |
|o|-----------------------------------------------------------------------|o|
| |-----------------------------------------------------------------------| |
| |-----------------------------------------------------------------------| |
|o|-0------------------------------------------------3---5-0-0---5--3---5-|o|
| |-0------------------------------------------------3---5-0-0---5--3---5-| |



|--------------------------------------------------
|--------------------------------------------------
|--------------------------------------------------
|--------------------------------------------------
|-0------3---5-0-0----3---5-0-0----3---5-0-3---5---
|-0------3---5-0-0----3---5-0-0----3---5-0-3---5---


---------------------------------------------------------|
---------------------------------------------------------|
---------------------------------------------------------|
---------------------------------------------------------|
-3---5-0-0----3---5-0-0-----3---5-0-0----3---5-0-0---5---|
-3---5-0-0----3---5-0-0-----3---5-0-0----3---5-0-0---5---|


  HP.M.__________________|
|---------------------------------------| -2-
|---------------------------------------|  T
|---------------------------------------|  I
|---------------------------------------|  M
|-0-----0-----0---0-----0--1-(1)-2-(2)--|  E
|-0-----0-----0---0-----0--1-(1)-2-(2)--|  S


MAINRIFF

                           ("Somekind of monster......")
                    P.M._____       __       __|
|-----------------------------------------------------| -4-
|-----------------------------------------------------|  T
|-----------------------------------------------------|  I
|-----------------------------------------------------|  M
|-0----0-0----3--5--0------0--3--5--0--3--5--0--3--5--|  E
|-0----0-0----3--5--0------0--3--5--0--3--5--0--3--5--|  S


  P.M.___________         ____________________________         _______________|
|------------------------------------------------------------------------------------|-2-
|------------------------------------------------------------------------------------| T
|------------------------------------------------------------------------------------| I
|------------------------------------------------------------------------------------| M
|-0-0-0-0-0-0-0-0-3---5---0--------0---0-0-0-0-0-0-0-0-0---3---0-0-0-0-0-0-0-0-3---5-| E
|-0-0-0-0-0-0-0-0-3---5---0--------0---0-0-0-0-0-0-0-0-0---3---0-0-0-0-0-0-0-0-3---5-| S



|--------------------------------------|
|--------------------------------------|
|--------------------------------------|
|--------------------------------------|
|----------_--------------_------------|
|-0----0-10-12-----0----10-12---0------|




ONLY GTR I PLAYS
|-------------------------------------------------------------| -2-
|-------------------------------------------------------------|  T
|-------------------------------------------------------------|  I
|-------------------------------------------------------------|  M
|---------\8----0-0-0----1------------\8----0-0-0----1-1-1----|  E
|-0----3/-------0-0-0----1----0----3/-------0-0-0----1-1-1----|  S


ALL BAND

|-------------------------------------------------------------| -4-
|-------------------------------------------------------------|  T
|-------------------------------------------------------------|  I
|-------------------------------------------------------------|  M
|---------\8----0-0-0----1------------\8----0-0-0----1-1-1----|  E
|-0----3/-------0-0-0----1----0----3/-------0-0-0----1-1-1----|  S


                                      ____________________
                                     |1st     |2nd time
| |-------------------------------------------|-----------| |
|o|-------------------------------------------|-----------|o|
| |-------------------------------------------|-----------| |
| |-------------------------------------------|-----------| |
|o|-0--3--3--0--3--3-----0--3--3--0--3--3-----|-3---___---|o|
| |-0--3--3--0--3--3-----0--3--3--0--3--3-----|-3--3-5-3--| |




 ("This is the cloud that swallows trust......")
                                         _________________
/gtr II & bass disappear in this riff/  |1st     |2nd time
| |-------------------------------------------|-----------| |
|o|-------------------------------------------|-----------|o|
| |-------------------------------------------|-----------| |
| |-------------------------------------------|-----------| |
|o|-0--3--3--0--3--3-----0--3--3--0--3--3-----|-3---___---|o|
| |-0--3--3--0--3--3-----0--3--3--0--3--3-----|-3--3-5-3--| |



("Ominous, i´m in us......")
|------------------------------------------------------------------
|------------------------------------------------------------------
|-----15------14------12------14------15------14------12------14---
|-----13------12------10------12------13------12------10------12---
|-0-------0-------0-------0-------0-------0-------0-------0--------
|-0-------0-------0-------0-------0-------0-------0-------0--------


-------------------------------------------------------------------|
-------------------------------------------------------------------|
-----16------14------12-------14------------------12---------------|
-----14------12------10-------12------------------10---------------|
-0-------0-------0--------0----------------------------------------|
-0-------0-------0--------0----------------------------------------|


                                      ____________________          
                                     |1st     |2nd time
| |-------------------------------------------|-----------| |
|o|-------------------------------------------|-----------|o|
| |-------------------------------------------|-----------| |
| |-------------------------------------------|-----------| |
|o|-0--3--3--0--3--3-----0--3--3--0--3--3-----|-3---___---|o|
| |-0--3--3--0--3--3-----0--3--3--0--3--3-----|-3--3-5-3--| |



("Ominous, i´m in us......")
|------------------------------------------------------------------
|------------------------------------------------------------------
|-----15------14------12------14------15------14------12------14---
|-----13------12------10------12------13------12------10------12---
|-0-------0-------0-------0-------0-------0-------0-------0--------
|-0-------0-------0-------0-------0-------0-------0-------0--------


-------------------------------------------------------------------|
-------------------------------------------------------------------|
-----16------14------12-------14------------------12---------------|
-----14------12------10-------12------------------10---------------|
-0-------0-------0--------0----------------------------------------|
-0-------0-------0--------0----------------------------------------|





|-------------------------------------------------------------| -2-
|-------------------------------------------------------------|  T
|-------------------------------------------------------------|  I
|-------------------------------------------------------------|  M
|---------\8----0-0-0----1------------\8----0-0-0----1-1-1----|  E
|-0----3/-------0-0-0----1----0----3/-------0-0-0----1-1-1----|  S


|-------------------|
|-------------------|
|-------------------|
|-------------------|
|-0-0-0----1-1-1----|
|-0-0-0----1-1-1----|


|-----------------------------------------------------------------|
|-----------------------------------------------------------------|
|-----------------------------------------------------------------|
|-----------------------------------------------------------------|
|-0---3-0-0-----0---3-0-0-----0-0-0----1-1-1----0-0-0----1-1-1----|
|-0---3-0-0-----0---3-0-0-----0-0-0----1-1-1----0-0-0----1-1-1----|



|-----------------------------------------------------------|
|-----------------------------------------------------------|
|-----------------------------------------------------------|
|-----------------------------------------------------------|
|-0---3-0-0-----0---3-0-0-----0---3-0-0-----0---3-0-3---5---|
|-0---3-0-0-----0---3-0-0-----0---3-0-0-----0---3-0-3---5---|


|-----------------------------------------------------------|
|-----------------------------------------------------------|
|-----------------------------------------------------------|
|-----------------------------------------------------------|
|-0---3-0-0-----0---3-0-0-----------------------------------|
|-0---3-0-0-----0---3-0-0-----------------------------------|




MAINRIFF

                           ("Somekind of monster......")
                    P.M._____       __       __|
|-----------------------------------------------------| -4-
|-----------------------------------------------------|  T
|-----------------------------------------------------|  I
|-----------------------------------------------------|  M
|-0----0-0----3--5--0------0--3--5--0--3--5--0--3--5--|  E
|-0----0-0----3--5--0------0--3--5--0--3--5--0--3--5--|  S


  P.M.___________         ____________________________         _______________|
|------------------------------------------------------------------------------------|-2-
|------------------------------------------------------------------------------------| T
|------------------------------------------------------------------------------------| I
|------------------------------------------------------------------------------------| M
|-0-0-0-0-0-0-0-0-3---5---0--------0---0-0-0-0-0-0-0-0-0---3---0-0-0-0-0-0-0-0-3---5-| E
|-0-0-0-0-0-0-0-0-3---5---0--------0---0-0-0-0-0-0-0-0-0---3---0-0-0-0-0-0-0-0-3---5-| S



|--------------------------------------| -2-
|--------------------------------------|  T
|--------------------------------------|  I
|--------------------------------------|  M
|----------_--------------_------------|  E
|-0----0-10-12-----0----10-12---0------|  S


|---12--12----------12--12---------12--12----------12--12-------|
|-12--12--12--12--12--12--12-----12--12--12--12--12--12--12-----|
|---------12--12----------12-------------12--12----------12-----|
|---------------------------------------------------------------|
|---------------------------------------------------------------|
|---------------------------------------------------------------|


			           T H E	E N D

                                       TABBED BY
			       T E R O   S A I K K O N E N

                                     contact me to:
		          t s s l a y e r @ l u u k k u . c o m
                          s t - a n g e r @ l u u k k u . c o m
                              AVAILABLE ALL ST. ANGER TABS
comments
print report bad tab
11 comments total. Showing first comments.
0 reply
miola wrote on September 20 2003, 12:00 am

sweet tab man! what effect does james use on the
c----12-12-----------
f----------10-12-----
part?

0 reply
miola wrote on September 20 2003, 12:00 am

*** got strings mixed up soz!

-1 reply
crazysnake wrote on August 19 2004, 12:00 am

totally wrong

I want to post or [tab]
guest
You may want to rate the tab now too:
select rating
Please do not post tabs as comments. Select "correction" instead!