Oops, an error
Loading. Please wait.

St Anger Bass Tab

ver1
ver1

Album

Whole song

More versions @911Tabs.com
15,885 views 18 this week
3 commentsread comments
1 2 3 4 5
worth learning
x 6
Autoscroll
+/-
esc
set tempo
stop
WARNING: You are trying to view
                                    content from Ultimate-Guitar.com
                                    in an unauthorized application,
                                    which is prohibited.

                                    Please use an official Ultimate
                                    Guitar Tabs application for iPhone,
                                    iPad or Android to access legitimate
                                    chords, guitar, bass, and drum tabs
                                    from Ultimate-Guitar.com database.

                                    Type "ultimate guitar tabs" in Apple
                                    App Store's or Android Market's
                                    search to find the application.
Metallica
St. anger
Tune bass down to C-G-C-F (low to high)

Frantic

In the 5th time of the intro the bass enter
G|--------------------------------------------|
C|--------------------------------------------| play this part X 8
G|-----------------------------5--------------|
C|---0-0-0-0-0-0-0-0-0------------------------|

G|-------------------------------------------|
C|-------------------------------------------| X 12
G|-------------------------------------------|
C|--6--3--0-0--5-0-0-------------------------|

james play 3 times and the bass enter in the 4th time

|------------------------------------|                  
|------------------------------------|                   
|---11--8---------10-10--------------|                     
|--------------12--------------------|                                          
                                                              
|------------------------------------|                        / play all this parts X 2                         
|------------------------------------|                       /
|---11--8---------10-10--------------|                      /
|--------------12--------------------|                     /
                                                          /
|------------------------------------|                   /
|------------------------------------|                  /
|---11--8----------10-10-------------|                 /
|--------------12--------------------|                /
                                                     /
|-------------------------------------------|       /
|-------------------------------------------|      /
|---11--8-----------------------------------|     /
|--------------12-12-12-12-12-12------------|    /

|----------------------------|             
|----------------------------|
|----------------------------|
|--6--3--0----5-5----5-------|

|----------------------------|
|----------------------------|
|----------------------------|
|--6--3--0----5-5----5-------|

|----------------------------|
|----------------------------|
|----------------------------|
|--6--3--0----5-5----5-------|

|----------------------------|
|----------------------------|
|----------------------------|
|--6--3--0-0-0-0-0-0---------| repeat this 4 parts X 2

|-------------------------------------------|
|-------------------------------------------|
|-------------------------------------------|
|-6-0-0-0-0-0-0-3-0-0-0-0-0-0-0-------------|

|-------------------------------------------|
|-------------------------------------------|
|-------------------------------------------|
|-6-0-0-0-0-0-0-3-0-0-0-0-0-0-0-------------|

|-------------------------------------------|
|-------------------------------------------|
|-------------------------------------------|
|-6-0-0-0-0-0-0-3-0-0-0-0-0-0-0-------------|

|-------------------------------------------|
|-------------------------------------------|
|-------------------------------------------|
|-6-0-0-0-0-0-0-3-0-0-0-0-0-0-0-------------|

|-------------------------------------------------|
|-------------------------------------------------|
|-------------------------------------------------|
|-6-6-6-6-5-5-5-5--6-6-6-6-5-5-5-5----------------|

|-------------------------------------------------|
|-------------------------------------------------|
|-------------------------------------------------|
|-6-6-6-6-5-5-5-5--6-6-6-6-5-5-5-5----------------|

|-------------------------------------------|
|-------------------------------------------|
|-------------------------------------------|
|-6-0-0-0-0-0-0-3-0-0-0-0-0-0-0-------------|

|-------------------------------------------|
|-------------------------------------------|
|-------------------------------------------|
|-6-0-0-0-0-0-0-3-0-0-0-0-0-0-0-------------|

You live it or lie it

|------------------------------------|
|------------------------------------|
|---11--8---------10-10--------------|
|--------------12--------------------|

|------------------------------------|
|------------------------------------|
|---11--8---------10-10--------------|
|--------------12--------------------|

My lifestyle determines my deathstyle 

|-----------------|        
|-----------------|              X 4
|-----------------|         /
|-0-0-0-0-0-------|        /

Keep searching 

|------------------------|    
|------------------------|         X 8
|------------------------|     /
|-5-5-5-5-5-5-5-6--------|    /

during the frantic-tic-tic-tic-tic-toc the bass its in silence

continue with this

|------------------------------------|                  
|------------------------------------|                   
|---11--8---------10-10--------------|                     
|--------------12--------------------|                                          
                                                              
|------------------------------------|                        /play all this parts X 2                         
|------------------------------------|                       /
|---11--8---------10-10--------------|                      /
|--------------12--------------------|                     /
                                                          /
|------------------------------------|                   /
|------------------------------------|                  /
|---11--8----------10-10-------------|                 /
|--------------12--------------------|                /
                                                     /
|-------------------------------------------|       /
|-------------------------------------------|      /
|---11--8-----------------------------------|     /
|--------------12-12-12-12-12-12------------|    /

|-------------------------------------------|
|-------------------------------------------|
|-------------------------------------------|
|-6-0-0-0-0-0-0-3-0-0-0-0-0-0-0--|

|-------------------------------------------|
|-------------------------------------------|
|-------------------------------------------|
|-6-0-0-0-0-0-0-3-0-0-0-0-0-0-0--|

|-------------------------------------------|
|-------------------------------------------|
|-------------------------------------------|
|-6-0-0-0-0-0-0-3-0-0-0-0-0-0-0--|

|-------------------------------------------|
|-------------------------------------------|
|-------------------------------------------|
|-6-0-0-0-0-0-0-3-0-0-0-0-0-0-0--|

|-------------------------------------------------|
|-------------------------------------------------|
|-------------------------------------------------|
|-6-6-6-6-5-5-5-5--6-6-6-6-5-5-5-5----|

|-------------------------------------------------|
|-------------------------------------------------|
|-------------------------------------------------|
|-6-6-6-6-5-5-5-5--6-6-6-6-5-5-5-5----|

|-------------------------------------------|
|-------------------------------------------|
|-------------------------------------------|
|-6-0-0-0-0-0-0-3-0-0-0-0-0-0-0--|

|-------------------------------------------|
|-------------------------------------------|
|-------------------------------------------|
|-6-0-0-0-0-0-0-3-0-0-0-0-0-0-0--|

You live it or lie it

|------------------------------------|
|------------------------------------|
|---11--8---------10-10--------|
|--------------12------------------|

|------------------------------------|
|------------------------------------|
|---11--8---------10-10--------|
|--------------12------------------|

My lifestyle determines my deathstyle 

|-----------------|        
|-----------------|              X 4
|-----------------|         /
|-0-0-0-0-0---|        /

Keep searching 

|------------------------|    
|------------------------|         X 8
|------------------------|     /
|-5-5-5-5-5-5-5-6--|    /

|------|--------------------------|
|------|--------------------------|    X 4
|------|--------------------------|
|--0--|--0--0--0-0-0-0-------|

|-----------------------------|    
|-----------------------------|        X 12
|-----------------------------|     /
|-6h3--0-0--5--0-0-0---|    /

|--------------------------------------------|
|--------------------------------------------| play this part X 4
|-----------------------------5-------------|
|---0-0-0-0-0-0-0-0-0-----------------|

|-----------------|        
|-----------------|              X 8
|-----------------|         /
|-0-0-0-0-0---|        /

Keep searching 

|------------------------|    
|------------------------|         X 8
|------------------------|     /
|-5-5-5-5-5-5-5-6--|    /

Frantic-tic-tic-tic-tic-tic-tic-tic-toc
this is the end
|-------|              
|-------|  X 8  
|-------|
| 0-0--|

|-------------------------------|
|-------------------------------| X8 at the end make this    G|-----|
|-5-5-5-5-----5-3-5-6-----|                                       C|-0--|
|-------------------------------|

St. Anger

Main Riff

F|----------------------|
c|----------------------|
G|----------------3333--|
C|--0-22-22-22-22-------|

Interval Riff 1

F|----------------------|
C|----------------------|
G|--------------3333----|
C|--022-022-022---------|

Interval Riff 2

F|-------------------|
C|-------------------|
G|-------------------|
C|--0-00-00-00-00-0--|

Verse Part 1

F|-------------------|
C|-------------------| 
G|-------------------|
C|--3-334-0-9-7-0-2--|

Verse Part 2

F|---------------------------------|
C|---------------------------------|
G|--1111-1111-1111/7777/5555/3333--|
C|---------------------------------|

Pre Chorus

F|---------------------------------|
C|---------------------------------|
G|--5-------3-8-0-5-------8-13-12--|
C|----00-00---------00-00----------|

Chorus

F|---------------------------------------------------------------------------|
C|---------------------------------------------------------------------------|
G|5555555555555-33333333-111111-000000-555555555555-333333333-111111-000000--|
C|---------------------------------------------------------------------------|


Some Kind Of Monster

|--------------------------|
|--------------------------|
|--------------------------|
|--0---0-0--3--5--0--x--0--|

|--------------------------|--------------------------|
|--------------------------|--------------------------|
|--------------------------|--------------------------|
|--3--5--0--3--5--0--3--5--|--0---0-0--3--5--0--x--0--|

|--------------------------|--------------------------|
|--------------------------|--------------------------|
|--------------------------|--------------------------|
|--3--5--0--3--5--0--3--5--|--0---0-0--3--5--0--x--0--|

|--------------------------|--------------------------|
|--------------------------|--------------------------|
|--------------------------|--------------------------|
|--3--5--0--3--5--0--3--5--|--0---0-0--3--5--0--x--0--|

|--------------------------|-----------------------|--------|
|--------------------------|-----------------------|--------|
|--------------------------|-----------------------|--------|
|--3--5--0--3--5--0--3--5--|--3-3-3------5--0------|--------|

|-----------------------|-------|-----------------------|
|-----------------------|-------|-----------------------|
|-----------------------|-------|-----------------------|
|--3-3-3------5--0------|-------|--3-3-3------5--0------|

|-------|---------------------|-------|
|-------|---------------------|-------|
|-------|---------------------|-------|
|-------|--3--------5--0------|-------|

|---------------------|-------|---------------------|
|---------------------|-------|---------------------|
|---------------------|-------|---------------------|
|--3--------5--0------|-------|--3--------5--0------|

|--------|-------------|
|--------|-------------|
|--------|-------------|
|--------|--3-3-3------|

|-----------------------------------|
|-----------------------------------|     X4
|-----------------------------------|
|--0-0-0-0-0-0-0-0-0--3--5--0----0--|

|-----------------------|--------|
|-----------------------|--------|
|-----------------------|--------|
|--3-3-3------5--0------|--------|

|---------------------|----------|
|---------------------|----------| X3
|---------------------|----------|
|--3--------5--0------|----------|

|-----------------------|---------|-----------------------|
|-----------------------|---------|-----------------------|
|-----------------------|---------|-----------------------|
|--3-3-3------5--0------|---------|--3-3-3------5--0------|

|-------|-------------|-----------------------------------|
|-------|-------------|-----------------------------------|
|-------|-------------|-----------------------------------|
|-------|--3-3-3------|--0-0-0-0-0-0-0-0-0--3--5--0----0--|

|------------------------------------|-----------------------------------|
|------------------------------------|-----------------------------------|
|------------------------------------|-----------------------------------|
|--3-3-3-3-5--0--3--5-5-5-5-0--3--5--|--0-0-0-0-0-0-0-0-0--3--5--0----0--|

|------------------------------------|
|------------------------------------|
|------------------------------------|
|--3-3-3-3-5--0--3--5-5-5-5-0--3--5--|

|------------------------------|
|------------------------------| X 15
|------------------------------|
|--0---0-10/12-0---12--12-0----|

|---------------------|-----------------------|----------------------|
|---------------------|-----------------------|----------------------|
|---------------------|-------5---------------|----------------------|
|--0--------0------0--|--0-------0--0------0--|--0------0--0------0--|

|-----------------------|----------------------|
|-----------------------|----------------------|
|-------5---------------|----------------------|
|--0-------0--0------0--|--0------0--0------0--|

|------------------------------|
|------------------------------|   X9
|------------------------------|
|--0---0-10/12-0---12--12-0----|

|---------------------|----------------------|
|---------------------|----------------------|  X2
|---------------------|----------------------|
|--0------0------0----|--0------0--1----2----|

|----|------------------------|----------------------|
|----|------------------------|----------------------|
|----|------------------------|----------------------|
|----|----------5-3-5-0-0--5--|--5-3-5-0-------------|

|------------------------|---------------------------|
|------------------------|---------------------------|
|------------------------|---------------------------|
|----------5-3-5-0-0--5--|--5-3-5-0-----5-3-5-0-0----|

|-----------------------------|----------------------------|
|-----------------------------|----------------------------|
|-----------------------------|----------------------------|
|--5-3-5-0-0----5-3-5-0-0--5--|--5-3-5-0-0----5-3-5-0-0----|

|-----------------------------|
|-----------------------------|
|-----------------------------|
|--5-3-5-0-0----5-3-5-0-0--5--|

|---------------------|----------------------|
|---------------------|----------------------| X2
|---------------------|----------------------|
|--0------0------0----|--0------0--1----2----|

|--------------------------|
|--------------------------|
|--------------------------|
|--0---0-0--3--5--0--x--0--|

|--------------------------|--------------------------|
|--------------------------|--------------------------|
|--------------------------|--------------------------|
|--3--5--0--3--5--0--3--5--|--0---0-0--3--5--0--x--0--|

|--------------------------|--------------------------|
|--------------------------|--------------------------|
|--------------------------|--------------------------|
|--3--5--0--3--5--0--3--5--|--0---0-0--3--5--0--x--0--|

|--------------------------|--------------------------|
|--------------------------|--------------------------|
|--------------------------|--------------------------|
|--3--5--0--3--5--0--3--5--|--0---0-0--3--5--0--x--0--|

|--------------------------|-----------------------------------|
|--------------------------|-----------------------------------|
|--------------------------|-----------------------------------|
|--3--5--0--3--5--0--3--5--|--0-0-0-0-0-0-0-0-0--3--5--0----0--|

|------------------------------------|-----------------------------------|
|------------------------------------|-----------------------------------|
|------------------------------------|-----------------------------------|
|--3-3-3-3-5--0--3--5-5-5-5-0--3--5--|--0-0-0-0-0-0-0-0-0--3--5--0----0--|

|------------------------------------|
|------------------------------------|
|------------------------------------|
|--3-3-3-3-5--0--3--5-5-5-5-0--3--5--|

|------------------------------|
|------------------------------| X15
|------------------------------|
|--0---0-10/12-0---12--12-0----|

|---------------------|-----------------------|----------------------|
|---------------------|-----------------------|----------------------|
|---------------------|-------5---------------|----------------------|
|--0--------0------0--|--0-------0--0------0--|--0------0--0------0--|

|-----------------------|----------------------|
|-----------------------|----------------------|
|-------5---------------|----------------------|
|--0-------0--0------0--|--0------0--0------0--|

|------------------------------|
|------------------------------|       X9
|------------------------------|
|--0---0-10/12-0---12--12-0----|

|---------------------|----------------------|
|---------------------|----------------------|  X2
|---------------------|----------------------|
|--0------0------0----|--0------0--1----2----|

|----|------------------------|----------------------|
|----|------------------------|----------------------|
|----|------------------------|----------------------|
|----|----------5-3-5-0-0--5--|--5-3-5-0-------------|

|------------------------|---------------------------|
|------------------------|---------------------------|
|------------------------|---------------------------|
|----------5-3-5-0-0--5--|--5-3-5-0-----5-3-5-0-0----|

|-----------------------------|----------------------------|
|-----------------------------|----------------------------|
|-----------------------------|----------------------------|
|--5-3-5-0-0----5-3-5-0-0--5--|--5-3-5-0-0----5-3-5-0-0----|

|-----------------------------|
|-----------------------------|
|-----------------------------|
|--5-3-5-0-0----5-3-5-0-0--5--|

|---------------------|----------------------|
|---------------------|----------------------|   X2
|---------------------|----------------------|
|--0------0------0----|--0------0--1----2----|                    

|--------------------------|
|--------------------------|
|--------------------------|
|--0---0-0--3--5--0--x--0--|

|--------------------------|--------------------------|
|--------------------------|--------------------------|
|--------------------------|--------------------------|
|--3--5--0--3--5--0--3--5--|--0---0-0--3--5--0--x--0--|

|--------------------------|--------------------------|
|--------------------------|--------------------------|
|--------------------------|--------------------------|
|--3--5--0--3--5--0--3--5--|--0---0-0--3--5--0--x--0--|

|--------------------------|--------------------------|
|--------------------------|--------------------------|
|--------------------------|--------------------------|
|--3--5--0--3--5--0--3--5--|--0---0-0--3--5--0--x--0--|

|--------------------------|-----------------------------------|
|--------------------------|-----------------------------------|
|--------------------------|-----------------------------------|
|--3--5--0--3--5--0--3--5--|--0-0-0-0-0-0-0-0-0--3--5--0----0--|

|------------------------------------|-----------------------------------|
|------------------------------------|-----------------------------------|
|------------------------------------|-----------------------------------|
|--3-3-3-3-5--0--3--5-5-5-5-0--3--5--|--0-0-0-0-0-0-0-0-0--3--5--0----0--|

|------------------------------------|------------------------------|
|------------------------------------|------------------------------|
|------------------------------------|------------------------------|
|--3-3-3-3-5--0--3--5-5-5-5-0--3--5--|--0---0-10/12-0---12--12-0----|

|--------------------------|----------------------------|
|--------------------------|----------------------------|        X6
|--------------------------|----------------------------|
|--0---0-5/-3--0-0-0--1----|--0---0-5/-3--0-0-0--1-1-1--|

|------------------------|
|------------------------|     X3
|------------------------|
|--0--3--3--0--3--3------|

|---------------------------|----|----|----|----|
|---------------------------|----|----|----|----|
|---------------------------|----|----|----|----|
|--0--3--3--0--3--3--3/5/3--|----|----|----|----|

|----------------------|
|----------------------|   X4
|----------------------|
|--0------0--0------0--|

|------------------------|
|------------------------|    X3
|------------------------|
|--0--3--3--0--3--3------|

|---------------------------|
|---------------------------|
|---------------------------|
|--0--3--3--0--3--3--3/5/3--|

|----------------------|
|----------------------|     X4
|----------------------|
|--0------0--0------0--|

|--------------------------|----------------------------|
|--------------------------|----------------------------|   X2
|--------------------------|----------------------------|
|--0---0-5/-3--0-0-0--1----|--0---0-5/-3--0-0-0--1-1-1--|

|----------------|---------------|---------------|
|----------------|---------------|---------------|
|----------------|---------------|---------------|
|--0-0-0--1-1-1--|--5-3-5-0-0----|--5-3-5-0-0----|

|----------------|----------------|----------------------------|
|----------------|----------------|----------------------------|
|----------------|----------------|----------------------------|
|--0-0-0--1-1-1--|--0-0-0--1-1-1--|--5-3-5-0-0----5-3-5-0-0----|

|-----------------------------|----------------------------|---|
|-----------------------------|----------------------------|---|
|-----------------------------|----------------------------|---|
|--5-3-5-0-0----5-3-5-0-0--5--|--5-3-5-0-0----5-3-5-0-0----|---|

|--------------------------|--------------------------|
|--------------------------|--------------------------|
|--------------------------|--------------------------|
|--0---0-0--3--5--0--x--0--|--3--5--0--3--5--0--3--5--|

|--------------------------|--------------------------|
|--------------------------|--------------------------|
|--------------------------|--------------------------|
|--0---0-0--3--5--0--x--0--|--3--5--0--3--5--0--3-----|

|--------------------------|--------------------------|
|--------------------------|--------------------------|
|--------------------------|--------------------------|
|--0---0-0--3--5--0--x--0--|--3--5--0--3--5--0--3--5--|

|--------------------------|--------------------------|
|--------------------------|--------------------------|
|--------------------------|--------------------------|
|--0---0-0--3--5--0--x--0--|--3--5--0--3--5--0--3--5--|

|-----------------------------------|------------------------------------|
|-----------------------------------|------------------------------------|
|-----------------------------------|------------------------------------|
|--0-0-0-0-0-0-0-0-0--3--5--0----0--|--3-3-3-3-5--0--3--5-5-5-5-0--3--5--|

|-----------------------------------|------------------------------------|
|-----------------------------------|------------------------------------|
|-----------------------------------|------------------------------------|
|--0-0-0-0-0-0-0-0-0--3--5--0----0--|--3-3-3-3-5--0--3--5-5-5-5-0--3--5--|

|------------------------------|------------------------------|----||
|------------------------------|------------------------------|----||
|------------------------------|------------------------------|----||
|--0---0-10/12-0---12--12-0----|--0---0-10/12-0---12--12-0----|----||

Dirty Window

Tuning: Eb Ab Db Gb

Gb---------------------------------------
Db--------------------------------------- 
Ab--------------------------------------- 6x
Eb--33333--3--33--3---------------------- (Play with the Rhythm of the Drums)

  0:18, 0:22
Gb-------------
Db-------------
Ab------------- 2x  (Listen carefully)
Eb—-12/--------

Gb---------------------------------
Db---------------------------------
Ab------------------------5-------- 3x
Eb—-0-3-5---0-3-5---0-3-5----6-5---

Gb-----------------------
Db-----------------------
Ab-----------------------
Eb—-0~-3~-5~---8-8-8-8---

Gb---------------------------------
Db---------------------------------
Ab------------------------5-------- 4x
Eb—-0-3-5---0-3-5---0-3-5----6-5---

Gb-----------------------
Db-----------------------
Ab-----------------------
Eb—-0~-3~-5~---8-8-8-8---

Gb---------------------------------
Db---------------------------------
Ab------------------------5-------- 2x
Eb—-0-3-5---0-3-5---0-3-5----6-5---
  ..........................

Gb------------------------------
Db------------------------------
Ab------------------------------ 4x
Eb—-0-3-5----------0-3-5----8b~--

Gb-----------------
Db-----------------
Ab--------5-------- 
Eb—-0-3-5----6-5---
  
Gb---------------------------------
Db---------------------------------
Ab------------------------5-------- 2x
Eb—-0-3-5---0-3-5---0-3-5----6-5---

No Bass from 1:30 - 1:43

Gb---------------------------------
Db---------------------------------
Ab------------------------5-------- 
Eb—-0-3-5---0-3-5---0-3-5----6-5---

Gb---------------------------------------------------------
Db---------------------------------------------------------
Ab---------------------------------5--------------5--------
Eb—-0-3-5---0-3-5---0-3-5----0-3-5----6-5---0-3-5----6-5---

Gb---------------------------------------
Db--------------------------------------- 
Ab--------------------------------------- 2x
Eb--33333--3--33--3----------------------    (Play with the Rhythm of the Drums)

Gb---------------------------------
Db---------------------------------
Ab------------------------5-------- 4x
Eb—-0-3-5---0-3-5---0-3-5----6-5---

Gb-----------------------
Db-----------------------
Ab-----------------------
Eb—-0~-3~-5~---8-8-8-8---

Gb---------------------------------
Db---------------------------------
Ab------------------------5-------- 2x
Eb—-0-3-5---0-3-5---0-3-5----6-5---
  ..........................

Gb------------------------------
Db------------------------------
Ab------------------------------ 4x
Eb—-0-3-5----------0-3-5----8b~--

Gb--------------------------------
Db--------------------------------
Ab------------------------5-------
Eb—-0-3-5----------0-3-5----6-5---

Gb---------------------------------
Db---------------------------------
Ab------------------------5-------- 2x
Eb—-0-3-5---0-3-5---0-3-5----6-5---

No Bass from 2:56 - 3:11

Gb---------------------------------
Db---------------------------------
Ab------------------------5-------- 
Eb—-0-3-5---0-3-5---0-3-5----6-5---

Gb---------------------------------------------------------
Db---------------------------------------------------------
Ab---------------------------------5--------------5--------
Eb—-0-3-5---0-3-5---0-3-5----0-3-5----6-5---0-3-5----6-5---

Gb---------------------------------------
Db--------------------------------------- 
Ab--------------------------------------- 3x
Eb--33333--3--33--3----------------------    (Play with the Rhythm of the Drums)

No Bass from 3:34 - 3:41

Gb---------------------------------------
Db--------------------------------------- 
Ab--------------------------------------- 10x
Eb--33333--3--33--3----------------------    (Play with the Rhythm of the Drums)

Gb---------------------------------
Db---------------------------------
Ab------------------------5-------- 2x
Eb—-0-3-5---0-3-5---0-3-5----6-5---

No Bass from 4:07 - 4:22

Gb---------------------------------
Db---------------------------------
Ab------------------------5-------- 
Eb—-0-3-5---0-3-5---0-3-5----6-5---

Gb---------------------------------------------------------
Db---------------------------------------------------------
Ab---------------------------------5--------------5--------
Eb—-0-3-5---0-3-5---0-3-5----0-3-5----6-5---0-3-5----6-5---

Gb---------------------------------------
Db--------------------------------------- 
Ab--------------------------------------- 24x
Eb--33333--3--33--3----------------------    (Play with the Rhythm of the Drums)

Invisible Kid

Intro
F|------------------
C|------------------
G|------------------
C|--3-0--0-0-0-0-0--

F|------------
C|------------
G|------------
C|--3-3-5-0---

Lars Hits The Drums Twice Right Before Going Into The Verse
F|-------
C|-------
G|-------
C|--3--3-

Verse
F|--------------------------------------------------------
C|--------------------------------------------------------
G|--------------------------------------------------------
C|--3-3-5-0--0-3-0-3-0-5-0--0-3-0-3-0-5-0--0-3-0-8-8-10-8-

Little Interlude
F|---------------------------------------------------
C|---------------------------------------------------
G|---------------------------------------------------
C|--4-0--3-4-5-4-0--3-4-5-4-0--3-4-5-4-0--3-4-5-4-0--

Verse
F|--------------------------------------------------------
C|--------------------------------------------------------
G|--------------------------------------------------------
C|--3-3-5-0--0-3-0-3-0-5-0--0-3-0-3-0-5-0--0-3-0-8-8-10-8-

Little Interlude
F|---------------------------------------------------
C|---------------------------------------------------
G|---------------------------------------------------  
C|--4-0--3-4-5-4-0--3-4-5-4-0--3-4-5-4-0--3-4-5-4-0--

The Part Where James Sings "Im OK just go away....."
F|------------------------------------------------------------
C|------------------------------------------------------------
G|-------------------------------------------------------2-3-3
C|--0-0-0-0-1-2-2--0-0-0-0-1-2-2--0-0-0-0-1-2-2--0-0-0-1------

Then
F|-----------------------------
C|-----------------------------
G|-----------------------------
C|-0--0-1-2-3-5-0--0-1-2-3-5-0-

Lars Hits The Drums Twice Right Before Going Into The Verse
F|-------
C|-------
G|-------
C|--3--3-

Verse
F|--------------------------------------------------------
C|--------------------------------------------------------
G|--------------------------------------------------------
C|--3-3-5-0--0-3-0-3-0-5-0--0-3-0-3-0-5-0--0-3-0-8-8-10-8-

Little Interlude
F|---------------------------------------------------
C|---------------------------------------------------
G|---------------------------------------------------
C|--4-0--3-4-5-4-0--3-4-5-4-0--3-4-5-4-0--3-4-5-4-0--

The Part Where James Sings "Im OK just go away....."
F|------------------------------------------------------------
C|------------------------------------------------------------
G|-------------------------------------------------------2-3-3
C|--0-0-0-0-1-2-2--0-0-0-0-1-2-2--0-0-0-0-1-2-2--0-0-0-1------

Then
F|-----------------------------
C|-----------------------------
G|-----------------------------
C|-0--0-1-2-3-5-0--0-1-2-3-5-0-

Then
F|------------
C|------------
G|------------
C|--3-3-5-0---

Then
F|-----------------------
C|-----------------------
G|-----------------------
C|--7--5-7--5-7--5-8-8-8-

Then
F|------------
C|------------
G|------------
C|--3-3-5-0---

Intro
F|------------------
C|------------------
G|------------------
C|--3-0--0-0-0-0-0--

F|------------
C|------------
G|------------
C|--3-3-5-0---

Guitar Solo

Verse
F|--------------------------------------------------------
C|--------------------------------------------------------
G|--------------------------------------------------------
C|--3-3-5-0--0-3-0-3-0-5-0--0-3-0-3-0-5-0--0-3-0-8-8-10-8-

The Part After That When James Sings "I hurt inside i hide inside but ill show you.."
F|-----------------------------
C|-----------------------------
G|-----------------------------
C|-0--0-1-2-3-5-0--0-1-2-3-5-0-

Then
F|-----------------------------
C|-----------------------------
G|-----------------------------
C|-0--0-1-2-3-5-0--0-1-2-3-5-0-

Then
F|-----------------------------
C|-----------------------------
G|-----------------------------
C|-0--0-1-2-3-5-0--0-1-2-3-5-0-

Then
F|-----------------------------------------
C|-----------------------------------------
G|-------------------------------------2-3-
C|--1-0-1-1-1--1-0-1-1-1--1-0-1-1-1--1-----

End Note
F|-----------------
C|-----------------
G|-----------------
C|------1~~~~------

My World

CGCF tuning

intro
I------------I
I------------I
I------------I
I-00-0000-1b-I


next bit
I---------------------------I
I---------------------------I
I---------------------0h3h5-I
I-0-0-0-3-0-0-5-0-0-3-------I


verse
I---------------------------------------------I
I---------------------------------------------I
I---------------------0h3h5-------------------I
I-0-0-0-3-0-0-5-0-0-3-------0---3---5---3---0-I


'its my world' part1
I--------I
I--------I
I--------I
I-333333-I


'its my world' part2
I-------I
I-------I
I-------I
I-0-3-5-I

SUCKA
I------------------I
I------------------I
I------------------I
I-3p0-3p0-3p0--5-6-I


endish bit
I------------------I
I------------------I
I---------------3b-I
I-3-00-30-03-00----I
This song is tabbed a little wrong, but the sort of bass solo goes
G-00--33--55--33-00-33--55--33—
And does that through quite a bit of the song

Shoot Me Again

Guitar Opening  (0:00 to 0:07)

Then cool bass part 8x  (0:08 to 0:16)

F-I---------------------------I
C-I---12---0--10--12---0--10--I
G-I---------------------------I
C-I---------------------------I

Then Bass only (0:17 to 0:19)

F-I----------------------------------------------------------I
C-I--12---0-0--10--12--0--0--10--12---0-0--10--12---0-0--10--I
G-I----------------------------------------------------------I
C-I----------------------------------------------------------I

Guitars back in - just play the open c string the whole time (just listen it's
easy to hear) until the break (0:20 to 0:40)

F-I-------------------------------------------------------------------------I
C-I-------------------------------------------------------------------------I
G-I-------------------------------------------------------------------------I
C-I-0-0-0-0-0-0-0-0-0-0-0-0-0-0-0-0-0-0-0-0-0-0-0-0-0-0-0-0-0-0-0-0-0-0-0-0-I


Then it's 8x (0:41 to 0:57)

F-I-------------------I
C-I-------------------I
G-I-------------------I
C-I--0-0-0---0-0-0-1--I

Verse Riff  2x (0:58 to 1:14)

F-I-----------------------------------------------------------------------------------I
C-I-----------------------------------------------------------------------------------I
G-I-----------------------------------------------------------------------------------I
C-I--0--0-0--0--0--0---0--0-0--0--0--0---1--1-1--1--1--1--/13-13-13-13-13-13-13-13\\\-I
						 (this is on the 13th fret)

Play this again 4x (1:15 to 1:23)

F-I-------------------I
C-I-------------------I
G-I-------------------I
C-I--0-0-0---0-0-0-1--I

Then Verse riff 2x more (1:24 to 1:40)

F-I-----------------------------------------------------------------------------------I
C-I-----------------------------------------------------------------------------------I
G-I-----------------------------------------------------------------------------------I
C-I-0--0-0--0--0--0---0--0-0--0--0--0---1--1-1--1--1--1---/13-13-13-13-13-13-13-13\\\-I
						 (this is on the 13th fret)


then when James sings "Shoot me again, I ain't dead yet" play this: (1:41 to 1:53)

F-I-------------------------------I
C-I-------------------------------I     3x
G-I-------------------------------I
C-I--0--0-0--0-0-0--0-3-1--1-1-1--I

On the last time of "Shoot me again, I ain't dead yet" play:  (1:54 to 1:57)

F-I-----------------------------I
C-I-----------------------------I
G-I-----------------------------I
C-I--0--0-0--0--0--0---0--3--1~~I   let the C# (1st fret) ring with the guitars

After that just play the low C string open with everything else (1:58 to 2:06)

F-I------------------------------------------------I
C-I------------------------------------------------I
G-I------------------------------------------------I
C-I---0-0-0-0-0-0-0-0-0-0-0-0-0-0-0-0-0-0-0-0-0-0--I
 
until....James starts the "All the shots you take" part  (2:07 to 2:24)
play this 2x 

F-I-----------------------------------------------
C-I-----------------------------------------------
G-I-----------------------------------------------
C-I-0--0-0--0-0-0-0-0--3--3-3--3-3-3-3-3---1--1-1-
		        		
------------------------------------------------------------I 							
------------------------------------------------------------I 
------------------------------------------------------------I 
-1-1-1-1-1--/12-13-13-13-13-13-12-13-13-13-13-13-12-13-13-13I 
(12th and13th fret again)                               



when James sings just "All the shots.", play this 2x (2:25 to 2:28)

F-I------------------I
C-I------------------I
G-I------------------I
C-I--0-0-0-0-0-0-0-0-I

then play this 2x again (2:29 to 2:45)

F-I-----------------------------------------------
C-I-----------------------------------------------
G-I-----------------------------------------------
C-I-0--0-0--0-0-0-0-0--3--3-3--3-3-3-3-3---1--1-1-
							
------------------------------------------------------------I
------------------------------------------------------------I
------------------------------------------------------------I
-1-1-1-1-1--/12-13-13-13-13-13-12-13-13-13-13-13-12-13-13-13I
(12th and13th fret yet again)                          



Play this another 4x (2:46 to 2:54)

F-I-------------------I
C-I-------------------I
G-I-------------------I
C-I--0-0-0---0-0-0-1--I

Verse Riff  2x more (2:55 to 3:10)

F-I-------------------------------------------------------------------------------------I
C-I-------------------------------------------------------------------------------------I
G-I-------------------------------------------------------------------------------------I
C-I--0--0-0--0--0--0---0--0-0--0--0--0---1--1-1--1--1--1---/13-13-13-13-13-13-13-13\\\--I
						 (13th fret)
Play this another 4x (3:11 to 3:20)

F-I-------------------I
C-I-------------------I
G-I-------------------I
C-I--0-0-0---0-0-0-1--I

Verse Riff  2x more  (3:21 to 3:37)

F-I-------------------------------------------------------------------------------------I
C-I-------------------------------------------------------------------------------------I
G-I-------------------------------------------------------------------------------------I
C-I--0--0-0--0--0--0---0--0-0--0--0--0---1--1-1--1--1--1---/13-13-13-13-13-13-13-13\\\--I
						 (13th fret)

then back to "Shoot me again, I ain't dead yet"  (3:38 to 3:50)

F-I-------------------------------I
C-I-------------------------------I     3x
G-I-------------------------------I
C-I--0--0-0--0-0-0--0-3-1--1-1-1--I

last time  (3:51 to 3:54)

F-I-----------------------------I
C-I-----------------------------I
G-I-----------------------------I
C-I--0--0-0--0--0--0---0--3--1~~I   let the C# (1st fret) ring with the guitars

Play open C string with band (3:55 to 4:03)

"All the shots" again  (4:04 to 4:20)

F-I---------------------------------------
C-I---------------------------------------
G-I---------------------------------------
C-I-0--0-0--0-0-0-0-0--3--3-3--3-3-3-3-3--
(12th and13th fret again)

--------------------------------------------------------------------I   
--------------------------------------------------------------------I   
--------------------------------------------------------------------I   
-1--1-1--1-1-1-1-1--/12-13-13-13-13-13-12-13-13-13-13-13-12-13-13-13I 2x

this again (4:21 to 4:24)

F-I--------------------I
C-I--------------------I
G-I--------------------I
C-I--0-0-0-0-0-0-0-0---I	2x

then play this 2x again (4:25 to 4:42)

F-I-----------------------------------------------------------------------------------------------------------I
C-I-----------------------------------------------------------------------------------------------------------I
G-I-----------------------------------------------------------------------------------------------------------I
C-I-0--0-0--0-0-0-0-0--3--3-3--3-3-3-3-3---1--1-1--1-1-1-1-1--/12-13-13-13-13-13-12-13-13-13-13-13-12-13-13-13I
							(12th and13th fret yet again)

4x of this (4:43 to 4:49)

F-I-------------------I
C-I-------------------I
G-I-------------------I
C-I--0-0-0---0-0-0-1--I

Guitar break (4:50 to 4:52)

then back to playing low C string open with everything else (4:53 to 5:12)

F-I------------------------------------------------I
C-I------------------------------------------------I
G-I------------------------------------------------I
C-I---0-0-0-0-0-0-0-0-0-0-0-0-0-0-0-0-0-0-0-0-0-0--I

another guitar break

play the open low C string again from (5:23 to 5:30)

F-I------------------------------------------------I
C-I------------------------------------------------I
G-I------------------------------------------------I
C-I---0-0-0-0-0-0-0-0-0-0-0-0-0-0-0-0-0-0-0-0-0-0--I

next play this "Bite my tongue" part  (5:31 to 5:34)

F-I-----------------------------------------------------------------I
C-I-----------------------------------------------------------------I
G-I-----------------------------------------------------------------I
C-I-1-1-1-1-1-1-1-1-1-1-1-1-1-1-1-1-1-1-1-1-1-1-1-1-1-1-1-1-1-1-1-1-I

Repeat the last two figures again (5:35 to 5:43) 

Play the open C string  (5:44 to 5:51)

Next riff  4x   (5:52 to 6:09) 

F-I-------------------------------------------------------I
C-I-------------------------------------------------------I
G-I------------------------------------------------0-3-5--I
C-I-0-0--0-0--0-0--0-0--0-0--0-0--0-0--0-0--0-0--0--------I

"Bite my tongue" again  (6:10 to 6:13)

F-I-----------------------------------------------------------------I
C-I-----------------------------------------------------------------I
G-I-----------------------------------------------------------------I
C-I-1-1-1-1-1-1-1-1-1-1-1-1-1-1-1-1-1-1-1-1-1-1-1-1-1-1-1-1-1-1-1-1-I

Then it's 1x  (6:14 to 6:17)

F-I----------------I
C-I----------------I
G-I----------------I
C-I--0---0---0--0--I

then it's back to all the shots  (6:18 to 6:35)

F-I-------------------------------------------------------------------------------------
C-I-------------------------------------------------------------------------------------
G-I-------------------------------------------------------------------------------------
C-I-0-0-0-0-0-0-0-0-0-0-0-0-0-0-0-0--3-3-3-3-3-3-3-3-3-3-3-3-3-3-3-3--1--1-1--1-1-1-1-1-
							(12th and13th fret yet again)

-------------------------------------------------I
-------------------------------------------------I
-------------------------------------------------I
-/12-13-13-13-13-13-12-13-13-13-13-13-12-13-13-13I




Next...  (6:36 to 6:39)

F-I--------------------I
C-I--------------------I
G-I--------------------I
C-I--0-0-0-0-0-0-0-0---I	2x

play this 2x   (6:40 to 6:56)

F-I-------------------------------------------------------------------------------------
C-I-------------------------------------------------------------------------------------
G-I-------------------------------------------------------------------------------------
C-I-0-0-0-0-0-0-0-0-0-0-0-0-0-0-0-0--3-3-3-3-3-3-3-3-3-3-3-3-3-3-3-3--1--1-1--1-1-1-1-1-
							(12th and13th fret yet again)

-------------------------------------------------I
-------------------------------------------------I
-------------------------------------------------I
-/12-13-13-13-13-13-12-13-13-13-13-13-12-13-13-13I




End with playing this 4x  (6:57 to 7:05)

F-I-------------------I
C-I-------------------I
G-I-------------------I
C-I--0-0-0---0-0-0-1--I

End with an open low C

Sweet Amber

intro:                           Verse/Main Riff:
G|------------------------|   |-----------------------|
D|------------------------|   |-------------1/31-----|
A|---3-3-3-3-3-3-3-3-3-3--|   |-1---3--1h3------------|
E|------------------------|   |-----------------------|

prechorus:"she holds the pen"            "using what i want"
G|-------------------|--------------|     |--------------------------|
D|-------------------|--------------|     |--------------------------|
A|-3~-------1~---5~--|--------------|     |-3-1-1-3-1-1-3-1-1-6-6-5--|
E|-------------------|--4~----------|     |--------------------------|
 |she holds the pen  |oh sweet amber|

hard part of chorus:"how sweet r u"     Intro of verse2:wait a while listen for
                                                        the other guitar to do it
G----------------------------------|    |------------------------|
D----------------------------------|    |------------------------|
A-3-3-3-3-5-6-3-3-5-1--------------|    |-/13-13-13-13-13-13-13--|
E----------------------------------|    |------------------------|
^play as many times as needed

bridge
G-----------------------------------------------|
D-----------------------------------------------|
A-3-1-1-1-3-1-1-1-6--3-5-3-3-3-5-3-3-3---8-6-3--|
E-----------------------------------------------|

The Unnamed Feeling

Riff 1: Guitar
 
Riff 2 (comes in at 00:20, play 6 times):
F---------------------------------------
C---------------------------------------
G---------------------------------------
C--0-0-32--0-0-32--0-0-32--0-0-32---
 
Riff 3 (play 6 times)
F-------------------
C-------------------
G-------------------
C--/8-0-0-7-0-0-0---
 
Riff 4 (play 4 times):
F---------------------
C---------------------
G---------------------
C--0-0-32--0-0-32---
"Been here before..."
 
Fill:
F------------
C------------
G------------
C--/8----7---
 
Riff 4 x2
 
Fill
 
Riff 5:
F-------------------------------------------------------------------
C-------------------------------------------------------------------
G-------------------------------------------------------------------
C--0-0---0-0---32-----0---0-0--32---0-0---0-0---32-----0---0-0---
 
Fill
 
Riff 5 w/Fill over Verse 1
 
Riff 4 x6
 
Fill
 
Riff 5
 
Fill
 
Riff 6 (listen to bass drum for timing):
F------------------------------------------------------------------------
C-------------------------------------3--------2--0------------------3---
G-----5---------5---3------------3-5----------------------------3-5------
C--0---------------------------------------------------------------------
 
Riff 4 x4 + Fill
 
Riff 4 x2 + Fill
 
Riff 5 w/Fill over Verse 2
 
Riff 4 x7 + Fill
 
Riff 5
 
Fill
 
Riff 6 over Chorus 2
 
Riff 7 (Heavy Chorus):
F-----------------------------------------------------------------------
C-----------------------------------------------------------------------
G--3--5-------5--5-5-5p3--3--------5-5-3-5--------------3-5--3-5--------
C--------0-0------------------0-0-----------0h2--2--2-------------0-0---
 
(continued)
F-----------------------------------------------------------------------
C-----------------------------------------------------------------------
G--3--5-------5--5-5-5p3--3--------5-5-3-5------------------------------
C--------0-0------------------0-0-----------0h2--2-2-2--2--2-2-2-2-2-2--
 
(continued)
F-------------------------------------------------------
C-------------------------------------------------------
G-------------------------------------------------------
C--3--3-3-3--3--3-3-3-3-3-3--5--5-5-5--5--5-5-5-5-5-5---
 
Riff 8 (play 4 times):
F------------------------------------
C------------------------------------
G------------------------------------
C--0-0--0-0---32---0--0-0---32-----
 
Bridge = Riff 8 x8
"Get the *** out..."
 
Riff 9: Guitar
"I rage, I glaze, I hurt, I hate..."
 
Riff 10:
        3 times
F----------------------|---------|-------------------------------
C----------------------|---------|-------------------------------
G----------------------|---------|-------------------------------
C--/8--7---3p0-0--0-2--|--/8--7--|--0-8-0-7-0-0--0-8-0-7-0-0-0---
 
        2 times                      4 times
F----------------------|---------|--------------|----------
C----------------------|---------|--------------|----------
G----------------------|---------|--------------|----------
C--/8--7---3p0-0--0-2--|--/8--7--|--3p0-0--0-2--|--/8--7---
 
Riff 4 x16 (w/variations)
 
Riff 7 (Heavy Chorus) x2 w/variations  
 
Riff 6

Purify

james start and the bass enter in the third time

|--------------------------------|
|--------------------------------|
|--------------------------------|
|--0-0-0-0-0-0-0-0-0-------------|

|--------------------------------|
|--------------------------------|       X4 times
|--------------------------------|
|--0-0-3--3-3-0--3-3-0--3/5-5-0--|
     
|----------------------------------|
|----------------------------------|        X4 times
|----------------------------------|
|--0--0----0--0----0--0----0--0----|

|--------------------|      |----------------------|
|--------------------| X8   |----------------------|   X4
|--------------------|      |----------------------|
|--4-4-5-6-7--0------|      |--4-4-5-6-7--0-0-0----|

|--------------------------|--------------------------|
|--------------------------|--------------------------|
|--------------------------|--------------------------|
|--7--7--7--7--7--7--7--7--|--6--6--6--6--6--6--6--6--|

|--------------------------|--------------------------|------------------------|
|--------------------------|--------------------------|------------------------|
|--------------------------|--------------------------|------------------------|
|--5--5--5--5--5--5--5--5--|--6--6--6--6--6--6--6--6--|--1-2-3------1-2-3------|

|------------------------|--------------------------|--------------------------|
|------------------------|--------------------------|--------------------------|
|------------------------|--------------------------|--------------------------|
|--1-2-3------1-2-3------|--7--7--7--7--7--7--7--7--|--6--6--6--6--6--6--6--6--|

|--------------------------|--------------------------|------------------------|
|--------------------------|--------------------------|------------------------|
|--------------------------|--------------------------|------------------------|
|--5--5--5--5--5--5--5--5--|--6--6--6--6--6--6--6--6--|--1-2-3------1-2-3------|

|------------------------|---------------------------|----------------------------|
|------------------------|---------------------------|----------------------------|
|------------------------|---------------------------|----------------------------|
|--1-2-3------1-2-3------|--1-2-3-3-3---1-2-3-3-3----|--1-2-3-3-3---1-2-3-3-3-----|

|-------------------------------|
|-------------------------------|  
|-------------------------------|
|----3-3-3-3-3-3-3-3-3-3-3------|

james plays only (the bass is muted)
|--------------------------------|
|--------------------------------|   X4
|--------------------------------|
|--0-0-3--3-3-0--3-3-0--3/5-5-0--|


|--------------------|      |-----------------------|
|--------------------|X8    |-----------------------| X4
|--------------------|      |-----------------------|
|--4-4-5-6-7--0------|      |--4-4-5-6-7--0-0-0-----|

|--------------------------|--------------------------|
|--------------------------|--------------------------|
|--------------------------|--------------------------|
|--7--7--7--7--7--7--7--7--|--6--6--6--6--6--6--6--6--|

|--------------------------|--------------------------|------------------------|
|--------------------------|--------------------------|------------------------|
|--------------------------|--------------------------|------------------------|
|--5--5--5--5--5--5--5--5--|--6--6--6--6--6--6--6--6--|--1-2-3------1-2-3------|

|------------------------|--------------------------|--------------------------|
|------------------------|--------------------------|--------------------------|
|------------------------|--------------------------|--------------------------|
|--1-2-3------1-2-3------|--7--7--7--7--7--7--7--7--|--6--6--6--6--6--6--6--6--|

|--------------------------|--------------------------|------------------------|
|--------------------------|--------------------------|------------------------|
|--------------------------|--------------------------|------------------------|
|--5--5--5--5--5--5--5--5--|--6--6--6--6--6--6--6--6--|--1-2-3------1-2-3------|

|------------------------|---------------------------|----------------------------|
|------------------------|---------------------------|----------------------------|
|------------------------|---------------------------|----------------------------|
|--1-2-3------1-2-3------|--1-2-3-3-3---1-2-3-3-3----|--1-2-3-3-3---1-2-3-3-3-----|

|---------------------------|
|---------------------------|
|---------------------------|
|--3-3-3-3-3-3-3-3-3-3-3----|

|----------------------------------|
|----------------------------------|        X4 times
|----------------------------------|
|--0--0----0--0----0--0----0--0----|

|--------------------------------------------------|
|--------------------------------------------------|  X2
|--------------------------------------------------|
|--0--0--3--0--3--0--0--3--0--0--3--0--3--0--0--0--|

|----------------------------------------|
|----------------------------------------|  X 4
|----------------------------------------|
|--0-0-12-0-12-0-0-12-0-0-12-0-12-15b15r-|

|--------------------------|
|--------------------------|
|--------------------------|
|--7--7--7-7---3--3--3-3---|

|------------------------------|--------------------------|
|------------------------------|--------------------------|
|------------------------------|--------------3--3--3-3---|
|--5--0--0--0-0---12h0-12h15---|--7--7--7-7---------------|

|------------------------------|
|------------------------------|
|------------------------------|
|--5--0--0--0-0---12h0-12h15---|

|---------------------------|
|---------------------------|      X4
|---------------------------|  
|--3--0-3h5-0---3--3h-5-0---|

|--------------------------|
|--------------------------|
|--------------------------|
|--7--7--7-7---3--3--3-3---|

|------------------------------|--------------------------|
|------------------------------|--------------------------|
|------------------------------|--------------3--3--3-3---|
|--5--0--0--0-0---12h0-12h15---|--7--7--7-7---------------|

|------------------------------|
|------------------------------|
|------------------------------|
|--5--0--0--0-0---12h0-12h15---|

|---------------------------|
|---------------------------|   X10
|---------------------------|
|--3--0-3h5-0---3--3h-5-0---|

|----------------------------------------|
|----------------------------------------|  X4
|----------------------------------------|
|--0-0-12-0-12-0-0-12-0-0-12-0-12-15b15r-|

|--------------------------------------------------|
|--------------------------------------------------|   X2
|--------------------------------------------------|
|--0--0--3--0--3--0--0--3--0--0--3--0--3--0--0--0--|

|--------------------------|--------------------------|
|--------------------------|--------------------------|
|--------------------------|--------------------------|
|--7--7--7--7--7--7--7--7--|--6--6--6--6--6--6--6--6--|

|--------------------------|--------------------------|------------------------|
|--------------------------|--------------------------|------------------------|
|--------------------------|--------------------------|------------------------|
|--5--5--5--5--5--5--5--5--|--6--6--6--6--6--6--6--6--|--1-2-3------1-2-3------|

|------------------------|--------------------------|--------------------------|
|------------------------|--------------------------|--------------------------|
|------------------------|--------------------------|--------------------------|
|--1-2-3------1-2-3------|--7--7--7--7--7--7--7--7--|--6--6--6--6--6--6--6--6--|

|--------------------------|--------------------------|------------------------|
|--------------------------|--------------------------|------------------------|
|--------------------------|--------------------------|------------------------|
|--5--5--5--5--5--5--5--5--|--6--6--6--6--6--6--6--6--|--1-2-3------1-2-3------|

|------------------------|---------------------------|----------------------------|
|------------------------|---------------------------|----------------------------|
|------------------------|---------------------------|----------------------------|
|--1-2-3------1-2-3------|--1-2-3-3-3---1-2-3-3-3----|--1-2-3-3-3---1-2-3-3-3-----|
                                                                              
|---------------------------|
|---------------------------|
|---------------------------|
|--3-3-3-3-3-3-3-3-3-3-3-3--|

in the seven time enter the bass with this

|---------------------|---------------------|---------------------|
|---------------------|---------------------|---------------------|
|------3---5----------|------3---5----------|------3---5----------|
|--0h7-------0--0--0--|--0h7-------0--0--0--|--0h7-------0--0--0--|


|---------------------|------------------------|------------------------|
|---------------------|------------------------|------------------------|
|------3---5----------|--8--8--8----5----------|--8--8--8----5----------|
|--0h7-------0--0--0--|--10-10-10-----0--0--0--|--10-10-10-----0--0--0--|

|---------------------|---------------------|---------------------|
|---------------------|---------------------|---------------------|
|------3---5----------|------3---5----------|------3---5----------|
|--0h7-------0--0--0--|--0h7-------0--0--0--|--0h7-------0--0--0--|

|---------------------|------------------------|---------------------|------||
|---------------------|------------------------|---------------------|------||
|------3---5----------|--8--8--8----5----------|--8--8--8----5-------|------||
|--0h7-------0--0--0--|--10-10-10-----0--0--0--|--10-10-10-----0-----|------||

All Within My Hands

intro1
I-----------------I
I-----------------I
I-----------------I
I-77-00-66-00-543-I

then2
I-------------I
I-------------I
I-------------I
I-77-00-66-00-I

verse played octave higher during quite part


verse
I---------------------------------I
I---------------------------------I
I---------------------------------I
I-3-5-3-5-3-5-3-5-0-1-0-1-0-1-0-1-I

pre chorus
I----------------------------I
I----------------------------I
I----------------------------I
I-7---5---8---7--8p7p5-8p7p5-I


chorus
I---------------------------------------------------------------------I
I---------------------------------------------------------------------I
I---------------------------------------------------------------------I
I-7-7-7-7-7-7-7-7-5-5-5-5-5-5-5-5-8-8-8-8-8-8-8-8-7-7-7-7-8p7p5-8p7p5-I


love is control part
I-------------------------I
I-------------------------I
I-------------------------I
I-5h6h7-5h6h7-5h6h7-6p5p3-I


heavy bit
I--------------------------------I
I--------------------------------I
I--------------------------------I
I-5-6-7-0--5-6-3-5h6p5-3-5h6p5-3-I


intro part2

heavy part

intro part1

heavy part

next bit
I----------------------I
I----------------------I
I----------------------I
I-00-0-0-0-00-0-0-0-00-I

intro part 2
                   -
verse quiet bit   ---
                 -----
verse              -  
                   -
pre chorus         - 
                   -
chorus             - 
                   -
love is control    -
                   -
heavy part         -
                   -
intro part 1       -
                   -
heavy part         -
                   -
nextbit-----------

outro1
I-----------------------------I
I-----------------------------I
I-----------------------------I
I-5h6-0-0-0-0-0-0-3h5h6-7p6p5-I

then2
I-------------------------I
I-------------------------I
I-------------------------I
I-3-5h6p5-3-5-0-0-0-0-0-0-I

then3
I-------------------------I
I-------------------------I
I-------------------------I
I-5h6h7-5h6h7-5-3-0-0-0-0-I

then4
I---------------I
I---------------I
I---------------I
I-3-5h6p5-3-5-0-I
 

 outro 3

 outro 4

 outro 3

heavy bit

intro2

heavy bit

next bit

intro 2

very final part
I-------I
I-------I
I-------I
I-7-6-3-I

The guys who made the tabs
Frantic- edo
St. anger- jesuli
Some kind of monster- anonomys
Dirty window- daryl grant
Invisible kid- james
My world- anonomys/big tommy p
Shoot me again- stevo
Sweet amber- anonomys
The unnamed feeling- christian j.
Purify- metaledo
All within my hands- anonomys

The guy who put all this shit together
Big tommy p
3 comments total. show 1 bad comment
-2 reply
kirkhamettesp wrote on January 5 2008, 07:23 pm

Oh byr the way these tabs are wrong go onto youtube and look up the unnamed feeling live and its played on a five string
infact just about the hole thing is played on a five string

+4 reply
ozzyismetal wrote on May 17 2008, 05:20 am

hey saturns_bassman

it was bob rock who wrote the basslines in st. anger, not trujillo

trujillo came in after they wrote he album

and to kirkhamettesp, it was wrote on a 4-string, but trujillo uses 5-string basses

I want to post or [tab]
guest
You may want to rate the tab now too:
select rating
Please do not post tabs as comments. Select "correction" instead!