Oops, an error
Loading. Please wait.

St Anger Tab

ver1
ver1

Album

Whole song

More versions @911Tabs.com
120,031 views 128 this week
17 commentsread comments
1 2 3 4 5
accurate
x 69
Autoscroll
+/-
esc
set tempo
stop
WARNING: You are trying to view
                                    content from Ultimate-Guitar.com
                                    in an unauthorized application,
                                    which is prohibited.

                                    Please use an official Ultimate
                                    Guitar Tabs application for iPhone,
                                    iPad or Android to access legitimate
                                    chords, guitar, bass, and drum tabs
                                    from Ultimate-Guitar.com database.

                                    Type "ultimate guitar tabs" in Apple
                                    App Store's or Android Market's
                                    search to find the application.
                             ST.ANGER                .-.
        _.-~ /  _____  ______ __  _    _     _   ___ | ~-._
        \:/  -~||  __||_  __//  || |  | |  /| | / __/| .\:/
         /     ||  __|:| |\:/ ' || |__| |_/:| || (:/:|   \
        / /\/| ||____|:|_|:/_/|_||____|____||_|:\___\| |\ \
       / /:::|.:\::::\:\:\:|:||:||::::|:::://:/:/:::/:.|:\ \
      / /:::/ \::\::::\|\:\|:/|:||::::|::://:/\/:::/::/:::\ \
     /  .::\   \-~~~~~~~ ~~~~  ~~ ~~~~~~~~ ~~  ~~~~~-/\/:..  \
    /..:::::\                                         /:::::..\
   /::::::::-                                         -::::::::\
   \:::::-~                                             ~-:::::/
    \:-~                                                   ~-:/

This tab is created by Fade2black_tom


Frantic
St.Anger
Some Kind Of Monster
Dirty Window
Invisible Kid
My World
Shoot Me Again
Sweet Amber
The Unnamed Feeling
Purify
All Within My Hands

Corrections send to: Redhotchillipeppers_tom@hotmail.com




Frantic
Dropped-C tuning 

Intro
    Guitar 1
    PM------------>     PM------------>          PM------------>      PM----------->
D|--------------------------------------------|--------------------------------------------|
A|--------------------------------------------|--------------------------------------------|
F|*-------------------------------------------|-------------------------------------------*|
C|--------------------------------------------|--------------------------------------------|
G|*-------------------------------------------|-------------------------------------------*|
C|--0-0-0-0-0-0-0-0-----0-0-0-0-0-0-0-0-------|--0-0-0-0-0-0-0-0-----0-0-0-0-0-0-0-0-------|
 |                                                                                         |
 |Guitar 2                                                                                 |
 |---------------------------------|
 |---------------------------------|
 |---------------------------------|
 |---------------------------------|
 |---------------------------------| 
 |-6---3---0-0-0-0-5---0-0-0-0-0-0-|


 Guitar 1
   PM------------>      PM------------>         PM------------>       PM----------->
|--------------------------------------------|--------------------------------------------|
|--------------------------------------------|--------------------------------------------|
|*-------------------------------------------|-------------------------------------------*|
|--------------------------------------------|--------------------------------------------|
|*-------------------------------------------|-------------------------------------------*|
|--0-0-0-0-0-0-0-0------0-0-0-0-0-0-0-0------|--0-0-0-0-0-0-0-0------0-0-0-0-0-0-0-0------|
|                                                                                         |
|Guitar 2                                                                                 |
|        PM-    PM--->       PM-    PM--->            PM-    PM--->       PM-    PM--->   |
|--------------------------------------------|--------------------------------------------|
|--------------------------------------------|--------------------------------------------|
|*-------------------------------------------|-------------------------------------------*|
|--------------------------------------------|--------------------------------------------|
|*-------------------------------------------|-------------------------------------------*|
|--18-15-000-17-000000-18-15-000-17-000000---|--18-15-000-17-000000-18-15-000-17-000000---|



 Guitar 1
         PM-    PM--->       PM-    PM--->            PM-    PM--->       PM-    PM--->
|--------------------------------------------|--------------------------------------------|
|--------------------------------------------|--------------------------------------------|
|*-------------------------------------------|-------------------------------------------*|
|--------------------------------------------|--------------------------------------------|
|*-------------------------------------------|-------------------------------------------*|
|--18-15-000-17-000000-18-15-000-17-000000---|--18-15-000-17-000000-18-15-000-17-000000---|
|                                                                                         |
|Guitar 2                                                                                 |
|        PM-    PM--->       PM-    PM--->            PM-    PM--->       PM-    PM--->   |
|--------------------------------------------|--------------------------------------------|
|--------------------------------------------|--------------------------------------------|
|*-------------------------------------------|-------------------------------------------*|
|--------------------------------------------|--------------------------------------------|
|*-------------------------------------------|-------------------------------------------*|
|--18-15-000-17-000000-18-15-000-17-000000---|--18-15-000-17-000000-18-15-000-17-000000---|



 Guitar 2 (light distortion)                                              PM-------->
|--------------------------------------------|--------------------------------------------|
|--------------------------------------------|--------------------------------------------|
|--------------------------------------------|--------------------------------------------|
|--------------------------------------------|--------------------------------------------|
|--------------------------------------------|--------------------------------------------|
|--18-15-0-17-17----17-18-15-0-17-17----17---|--18-15-0-17-17----17-18-15-0-0-0-0-0-0-----|


%
Riff A (Play 4 times)
 Guitars 1&2 (distorted)                                                  PM-------->
|--------------------------------------------|--------------------------------------------|
|--------------------------------------------|--------------------------------------------|
|--------------------------------------------|--------------------------------------------|
|--------------------------------------------|--------------------------------------------|
|--------------------------------------------|--------------------------------------------|
|--18-15-0-17-17----17-18-15-0-17-17----17---|--18-15-0-17-17----17-18-15-0-0-0-0-0-0-----|



Riff B
 Guitars 1&2
          PM-------->         PM-------->              PM-------->         PM-------->
|--------------------------------------------|--------------------------------------------|
|--------------------------------------------|--------------------------------------------|
|*-------------------------------------------|-------------------------------------------*|
|--------------------------------------------|--------------------------------------------|
|*-6-\-3---------------6-\-3-----------------|--6-\-3---------------6-\-3----------------*|
|--6-\-3--0-0-0-0-0-0--6-\-3--0-0-0-0-0-0----|--6-\-3--0-0-0-0-0-0--6-\-3--0-0-0-0-0-0----|
"if i could have my wasted days back..."


Riff B1
 Guitars 1&2
   PM----------------------------------------------------------->
|--------------------------------------------|----------------------------|
|--------------------------------------------|----------------------------|
|--------------------------------------------|----------------------------|
|--------------------------------------------|----------------------------|
|--3-3-3-3-2-2-2-2-3-3-3-3-2-2-2-2-3-3-3-3---|--2-2-2-2-3-3-3-3-2-2-2-2---|
|--3-3-3-3-2-2-2-2-3-3-3-3-2-2-2-2-3-3-3-3---|--2-2-2-2-3-3-3-3-2-2-2-2---|
"do i have the strength..."


Riff B
 Guitars 1&2
          PM-------->         PM-------->              PM-------->         PM-------->
|--------------------------------------------|--------------------------------------------|
|--------------------------------------------|--------------------------------------------|
|--------------------------------------------|--------------------------------------------|
|--------------------------------------------|--------------------------------------------|
|--6-\-3---------------6-\-3-----------------|--6-\-3---------------6-\-3-----------------|
|--6-\-3--0-0-0-0-0-0--6-\-3--0-0-0-0-0-0----|--6-\-3--0-0-0-0-0-0--6-\-3--0-0-0-0-0-0----|



 Guitar 2 (light distortion)                   Guitars 1&2 (distorted)
|--------------------------------------------|--------------------------------------------|
|--------------------------------------------|--------------------------------------------|
|--------------------------------------------|--------------------------------------------|
|--------------------------------------------|--------------------------------------------|
|--------------------------------------------|--------------------------------------------|
|--18-15-0-17-17----17-18-15-0-17-17----17---|--18-15-0-17-17----17-18-15-17-17----17-----|
                                               "you live it or lie it..."

 Guitar 2 (light distortion)
|--------------------------------------------|
|--------------------------------------------|
|--------------------------------------------|
|--------------------------------------------|
|--------------------------------------------|
|--18-15-0-17-17----17-18-15-0-17-17----17---|



 Guitars 1&2
|--------------------------------------------|--------------------------------------------|
|--------------------------------------------|--------------------------------------------|
|--------------------------------------------|--------------------------------------------|
|--------------------------------------------|--------------------------------------------|
|--------------------------------------------|--------------------------------------------|
|--0-0-0-0-0-0-0-0-0-----0-0-0-0-0-0-0-0-0---|--0-0-0-0-0-0-0-0-0-----0-0-0-0-0-0-0-0-0---|
"my lifestyle determines my deathstyle..."



Pre-Chorus
 Guitar 1 (Clean)
|--------------------------------------------||--------------------------------------------|
|-----------0--------------------0-----------||-----------0--------------------0-----------|
|*-------0------0----0--------0------0----0-*||*-------0------0----0--------0------0----0-*|
|-----6--------------------6-----------------||-----6--------------------6-----------------|
|*-8--------------------8-------------------*||*-8--------------------8-------------------*|
|--------------------------------------------||--------------------------------------------|
|                                                                                          |
|Guitar 2 (light distortion)                                                               |
|--------------------------------------------||--------------------------------------------|
|--------------------------------------------||--------------------------------------------|
|*------------------------------------------*||*---/7------5------4-----------------------*|
|----6~~~~ ---3~~~ ---5~~~~ -----------------||------------------------5~~~ ---------------|
|*------------------------------------------*||*------------------------------------------*|
|--------------------------------------------||--------------------------------------------|
"keep searchin' - keep on searchin'..."


Guitar 1 (Clean)
|--------------------------------------------||--------------------------------------------|
|-----------0--------------------0-----------||-----------0--------------------0-----------|
|*-------0------0----0--------0------0----0-*||*-------0------0----0--------0------0----0-*|
|-----6--------------------6-----------------||-----6--------------------6-----------------|
|*-8--------------------8-------------------*||*-8--------------------8-------------------*|
|--------------------------------------------||--------------------------------------------|
|                                                                                          |
|Guitar 2 (light distortion)                                                               |
|--------------------------------------------||--------------------------------------------|
|--------------------------------------------||--------------------------------------------|
|*---13~~~ ---10~~ ---12~~~ ----------------*||*---/7------5------4-----------------------*|
|--------------------------------------------||------------------------5~~~ ---------------|
|*------------------------------------------*||*------------------------------------------*|
|--------------------------------------------||--------------------------------------------|
"keep searchin' - keep on searchin'..."
end Pre-Chorus



Chorus
 Guitars 1&2                PM---->                            PM---->
|------------------------------------------------------------------------
|------------------------------------------------------------------------
|*-----------------------------------------------------------------------
|------------------------------------------------------------------------
|*-----------------------------------------------------------------------
|--18-18-18-18--15--17--17--0--0--0---18-18-18-18--15--17--17--0--0--0---
 "fran-tic tick tick tick tick tick tock..."


 Guitars 1&2                PM---->
 ---------------------------------------------------------------------------------|
 ---------------------------------------------------------------------------------|
 --------------------------------------------------------------------------------*|
 ---------------------------------------------------------------------------------|
 --------------------------------------------------------------------------------*|
 --18-18-18-18--15--17--17--0--0--0---18-18-18-18-15-15-15-15-17-12-12-12-12-12---|
 "fran-tic tick tick tick tick tick tock..."
end Chorus
#

========================================================================
== Go back to "%" symbol and play to "#" symbol. Then continue below. ==
========================================================================


Bridge Riff [3:46] (Play 12 times. Played fast!!)
 Guitars 1&2
|--------------------------------------------|
|--------------------------------------------|
|--------------------------------------------|
|--------------------------------------------|
|--------------------------------------------|
|--18p0-15p0-0-0-0-0-0-0-17-0-0-0-0-0-0-0----|



Bridge Riff A [4:03] (Play 12 times. Play this fast too!)
 Guitars 1&2
|-----------------------------------------|
|-----------------------------------------|
|-----------------------------------------|
|--6p0-3p0-0-0-0-0-0-0-5-0-0-0-0-0-0-0----|
|-----------------------------------------|
|-----------------------------------------|



 Guitar 1
|------------------------------------------------|
|------------------------------------------------|
|*----------------------------------------------*|
|--6-6-6-3-3-3-5----------6-6-6-3-3-3-5----------|
|*----------------------------------------------*|
|------------------------------------------------|
|                                                |
|Guitar 2                                        |
|  PM---------------------------------------->   |
|------------------------------------------------|
|------------------------------------------------|
|*----------------------------------------------*|
|------------------------------------------------|
|*----------------------------------------------*|
|--0-0-0-0-0-0-0-0-0-0-0-0-0-0-0-0-0-0-0-0-0-0---|



 Guitars 1&2                                                                            *----->
|--------------------------------------------|--------------------------------------------------|
|--------------------------------------------|--------------------------------------------------|
|*-------------------------------------------|-------------------------------------------------*|
|--------------------------------------------|--------------------------------------------------|
|*-------------------------------------------|-------------------------------------------------*|
|--0-0-0-0-0-0-0-0-0-----0-0-0-0-0-0-0-0-0---|--0-0-0-0-0-0-0-0-0-----0-0-0-0-0-0-0-0-0-3-3-3-3-|
"my lifestyle determines my deathstyle..."
* = Guitar 2 only


================
== Pre-Chorus ==
================
==   Chorus   ==
================


Outro [5:15]
 Guitars 1&2-------------------------------->  Guitar 1
   PM->        PM->        PM->        PM->     PM->        PM->        PM->        PM->
|--------------------------------------------|--------------------------------------------|
|--------------------------------------------|--------------------------------------------|
|-----^-----------^-----------^-----------^--|-----^-----------^-----------^-----------^--|
|--0--0--------0--0--------0--0--------0--0--|--0--0--------0--0--------0--0--------0--0--|
|--0--0--------0--0--------0--0--------0--0--|--0--0--------0--0--------0--0--------0--0--|
|--0--0--------0--0--------0--0--------0--0--|--0--0--------0--0--------0--0--------0--0--|
                                             |                                            |
                                             | Guitar 2 starts riff C                     |

Riff C------------------------------------------------------------->
Guitar 2
|----------------------------|     |-------------------------------|
|----------------------------|     |-------------------------------|
|----------------------------|     |-------------------------------|
|----------------------------|3X   |-------------------------------|1X             
|----------------------------|     |-----------------------10------|
|--0--10-12--10-12-0-12-12---|     |--0--10-12--10-12-0-12----12---|


======================================
== Both Guitars play Riff C 3 times ==
======================================


|-----------------||
|-----------------||
|-----------------||
|---------End of--||
|--0------Song----||
|--0--------------||





St. Anger
Dropped C


Intro 
Guitar 1
Clean
  Pm.........  pm................
d----------------------------------------------------------------
A----------------------------------------------------------------
F----------------------------------------------------------------
C----------------------------------------------------------------  x3
G----------------------------3-3-3-------------------------------
C--0-1-2-2-0-2-1-0-2-1-0-1-1-------------------------------------
  Pm......... pm..
d----------------------------------------------------------------
A----------------------------------------------------------------
F----------------------------------------------------------------
C----------------------------------------------------------------
G----------------------------------------------------------------
C-0-1-2-2-0-2-1-0-2----------------------------------------------

The when the drums kick in
a bit of distortion
d----------------------------------------------------------------
A----------------------------------------------------------------
F----------------------------------------------------------------
C----------------------------3-3-3------------------------------- x 8
G----1-2-2---2-1---2-1---1-1-3-3-3-------------------------------
C--0-1-2-2-0-2-1-0-2-1-0-1-1-------------------------------------

guitar 2 
d----------------------------------------------------------------
A----------------------------------------------------------------
F----------------------------------------------------------------
C---------------------------------------------------------------- x 8
G--2-1-0----2-1-0------------------------------------------------
C--2-1-0----2-1-0------------------------------------------------

guitar 1 
lots of distortion
d----------------------------------------------------------------
A----------------------------------------------------------------
F---------------------------------------------------------------- x 7
C---------------------------3-3-3--------------------------------
G---1-2-2---2-1---2-1---1-1-3-3-3--------------------------------
C-0-1-2-2-0-2-1-0-2-1-0-1-1--------------------------------------


Verse
d----------------------------------------------------------------
A---------1---3--------3---------3-----3-------------------------
F-----2----------------------------------------------------------
C--0-------------------------------------------------------------
G------------------3--------1--------1---------------------------
C----------------------------------------------------------------

Chorus
Guitar 1
hit these notes very quickly listen to the song for correct timing
d----------------------------------------------------------------
A---15-----13------11----10--------------------------------------
F----------------------------------------------------------------
C----------------------------------------------------------------
G----------------------------------------------------------------
C----------------------------------------------------------------
st. anger round my neck he ..........................

Guitar 2
d----------------------------------------------------------------
A----------------------------------------------------------------
F---7-----5-----3----2-------------------------------------------
C---7-----5-----2----2-------------------------------------------
G---5-----3-----1----0-------------------------------------------
C----------------------------------------------------------------

Fill bit
d----------------------------------------------------------------
A----------------------------------------------------------------
F-------------------5---3--2-------------------------------------
C-------------------5---2--2------------------------------------- x2
G--0----0-0--0-0----3---1--0-------------------------------------
C--0----0-0--0-0-------------------------------------------------
        x x  x x

2nd chorus sort of thing

d-----------------------------------------------------------------
A-----------------------------------------------------------------
F-------5---3---2-------------------------------------------------
C-------5---2---2------------------------------------------------- x 8
G--0----3---1---0-------------------------------------------------
C--0--------------------------------------------------------------
f*ck it all and no regrets I hit the lights on these dark sets.....


d----------------------------------------------------------------
A----------------------------------------------------------------
F----------------------------------------------------------------
C----------------------------------------------------------------
G-0---0-0---0-0---0-0---0-0--------------------------------------
C-0---0-0---0-0---0-0---0-0--------------------------------------
      x x   x x   x x   x x

Then the songs goes back into the distorted intro part.

d----------------------------------------------------------------
A----------------------------------------------------------------
F----------------------------------------------------------------
C----------------------------3-3-3------------------------------- x 8
G----1-2-2---2-1---2-1---1-1-3-3-3-------------------------------
C--0-1-2-2-0-2-1-0-2-1-0-1-1-------------------------------------


Some Kind Of Monster


Drop C Tuning (CGCFAD)
Harmonic = <>

D |--------------------------------------------------------------------------|
A |--------------------------------------------------------------------------|
F |--------------------------------------------------------------------------|
C |--------------------------------------------------------------------------|
G |--------------------------------------------------------------------------|
C |-0--0-3-5-0--0-3-5-0-3-5-0-3-5-0--0-0-3-5-0--0-3-5-0-3-5-0-3-5------------|

D |--------------------------------------------------------------------------|
A |--------------------------------------------------------------------------|
F |--------------------------------------------------------------------------|
C |--------------------------------------------------------------------------|
G |-0--0-3-5-0--0-3-5-0-3-5-0-3-5-0--0-0-3-5-0--0-3-5-0-3-5-0-3-5------------|
C |-0--0-3-5-0--0-3-5-0-3-5-0-3-5-0--0-0-3-5-0--0-3-5-0-3-5-0-3-5------------|

D |--------------<5>--------------<5>----------------------------------------|
A |--------------<5>--------------<5>----------------------------------------|
F |--------------<5>--------------<5>----------------------------------------|
C |--------------------------------------------------------------------------|
G |--5-3-3--5-0-------5-3-3--5-0---------------------------------------------|
C |--5-3-3--5-0-------5-3-3--5-0---------------------------------------------|

D |--------------------------------------------------------------------------|
A |--------------------------------------------------------------------------|
F |--------------------------------------------------------------------------|
C |------3-5------3-5------3-5------3-5------3-5------3-5------3-5-6---------|
G |-5--5-----5--5-----5--5-----5--5-----5--5-----5--5-----5--5---------------|
C |--------------------------------------------------------------------------|
	I like playing the second one, but I think the first one is correct.
D |--------------------------------------------------------------------------|
A |--------------------------------------------------------------------------|
F |-------10-12-------10-12-------10-12-------10-12-------10-12------10-12-13|
C |-12-12-------12-12-------12-12-------12-12-------12-12-------12-12--------|
G |--------------------------------------------------------------------------|
C |--------------------------------------------------------------------------|

D |--------------------------------------------------------------------------|
A |--------------------------------------------------------------------------|
F |--------------------------------------------------------------------------|
C |--------------------------------------------------------------------------|
G |-00-11/12-0-12-12-0-00-11/12-0-12-12-0------------------------------------|
C |-00-11/12-0-12-12-0-00-11/12-0-12-12-0------------------------------------|

	Part where he goes ?Yeah?
D |--------------------------------------------------------------------------|
A |--------------------------------------------------------------------------|
F |--------------------------------------------------------------------------|
C |--------------------------------------------------------------------------|
G |-00-15-0-00-15-0-00-15-0-00-15-00-15-0-00-15-0-00-15-0-00-15--------------|
C |-00-15-0-00-15-0-00-15-0-00-15-00-15-0-00-15-0-00-15-0-00-15--------------|
 

	Verse ?These are the eyes that can?t see me?
D |--------------------------------------------------------------------------|
A |--------------------------------------------------------------------------|
F |--------------------------------------------------------------------------|
C |--------------------------------------------------------------------------|
G |----8------7------8------7------------------------------------------------|
C |--0------0------0------0--------------------------------------------------|

D |--------------------------------------------------------------------------|
A |--------------------------------------------------------------------------|
F |--------------------------------------------------------------------------|
C |--------------------------------------------------------------------------|
G |-0-0-0-0-0-1-2--0-0-0-0-0-1-2-0----------------------------------------|
C |-0-0-0-0-0-1-2--0-0-0-0-0-1-2-0----------------------------------------|

	?We the people?
D |--------------------------------------------------------------------------|
A |--------------------------------------------------------------------------|
F |--------------------------------------------------------------------------|
C |--------------------------------------------------------------------------|
G |-3-5-00-5-3-5-00--3-5-00-5-3-5-00-----------------------------------------|
C |-3-5-00-5-3-5-00--3-5-00-5-3-5-00-----------------------------------------|

D |--------------------------------------------------------------------------|
A |--------------------------------------------------------------------------|
F |--------------------------------------------------------------------------|
C |--------------------------------------------------------------------------|
G |-3-5-00-3-5-00-3-5-00-5-3-5-00--0-3-5-00-3-5-00-3-5-00-5-3-5-00-----------|
C |-3-5-00-3-5-00-3-5-00-5-3-5-00--0-3-5-00-3-5-00-3-5-00-5-3-5-00-----------|

D |--------------------------------------------------------------------------|
A |--------------------------------------------------------------------------|
F |--------------------------------------------------------------------------|
C |---3/5-3---------3/5-3----------------------------------------------------|
G |-0-------000-1-0-------000-111--------------------------------------------|
C |-0-------000-1-0-------000-111--------------------------------------------|

	?This is the cloud that swallows trust?
D |--------------------------------------------------------------------------|
A |--------------------------------------------------------------------------|
F |--------------------------------------------------------------------------|
C |--------------------------------------------------------------------------|
G |-0-3-3-0-3-3--0-3-3-0-3-3-----3-------------------------------------------|
C |-0-3-3-0-3-3--0-3-3-0-3-3-3/5-3-------------------------------------------|

	?Ominous I?m in us?
D |--------------------------------------------------------------------------|
A |-----7-5-7-----7-5-7------7-5-7------7-5-7--------------------------------|
F |-----7-5-7-----7-5-7------7-5-7------7-5-7--------------------------------|
C |-----7-5-7-----7-5-7------7-5-7------7-5-7--------------------------------|
G |-0---------0----------0----------0----------------------------------------|
C |-0---------0----------0----------0----------------------------------------|

D |-12-12-12-12----------12----12----12-12-12-12----------12----12-----------|
A |-------------12-12-12----12----12-------------12-12-12----12----12--------|
F |--------------------------------------------------------------------------|
C |--------------------------------------------------------------------------|
G |--------------------------------------------------------------------------|
C |--------------------------------------------------------------------------|



Dirty Window
Dropped C Tuning


_____
INTRO
-----
(intro riff) x 5.6
D|----------------------|
A|----------------------|
F|----------------------|
C|----------------------|
G|----------------------|
C|-0-0-0-0--0--0--0-0--0|
(main riff) X5
D|-------------------------|
A|-------------------------|
F|-------------------------|
C|-------------------------|
G|-------------------5-----|
C|-0-3-5-0-3-5-0-3-5---6-5-|
(main riff tail) X1
D|---------------|
A|---------------|
F|---------------|
C|---------------|
G|-0----0-3----3-|
C|-0----0-3----3-|
(main riff) x1

_____
VERSE
-----
(main riff) x3
(main riff tail) x1

palmmuted(main riff) x2

(am i who i think i am? riff) X3
D|-------------------------|
A|-------------------------|
F|-------------------------|
C|-------------------------|
G|-------------------------|
C|-0-3-5-0-------0-3-5-7~~~|

(court is in session..riff) X1
D|---------------------------------------------|
A|---------------------------------------------|
F|---------------------------------------------|
C|---------------------------------------------|
G|-3-6-8-3--3-6-8-------3-6-8-3---3-6-8-3-6-8--|
C|-3-6-8-3--3-6-8-10~~--3-6-8-3---3-6-8-3-6-8--|

(main riff) x2
_________
PRECHORUS
---------
D|--------------------------------------------|
A|--------------------------------------------|
F|-2---2--2p0--0h3p2--------------------------|
C|-0---3--------------------------------------|
G|--------------------------------------5-----|
C|--------------------0-3-5-0-3-5-0-3-5---6-5-|X2
 
______
CHORUS
------
D|-----------------------------------------------|
A|-----------------------------------------------|
F|-----------------------------------------------|
C|-----------------------------------------------|
G|-0-3-5-0----0-3-5-0----0-3-5-5------0-3-5-0----|
C|-0-3-5-0----0-3-5-0----0-3-5---6-5--0-3-5-0----|

D|-----------------------------------------------|
A|-----------------------------------------------|
F|-----------------------------------------------|
C|-----------------------------------------------|
G|-0-3-5-0----0-3-5-0----0-3-5-5------0-3-5-5----|
D|-0-3-5-0----0-3-5-0----0-3-5---6-5--0-3-5---6-5|

(intro riff) x 2

(main riff) x 1

_____
VERSE
-----
_________
PRECHORUS
---------
______
CHORUS
------

(intro riff) x 18

(main riff) x 2
_________
PRECHORUS
---------
______
CHORUS
------

(intro riff) to end



Invisible Kid
Dropped G#
G#, D#, G#, C#, F, A#


INTRO
A# |----------------------|
F  |----------------------|
C# |----------------------|
G# |------------------0---|12x
D# |----------------------|
G# |-0-0--3h0-3h0-3h0-----|


A# |--------------|
F  |--------------|
C# |--------------|
G# |-3-3--3/5--0--|16x
D# |-3-3--3/5--0--|
G# |-3-3--3/5--0--|

VERSE
A# |-----------------------------------------|
F  |-----------------------------------------|
C# |-----------------------------------------|
A# |-000-3h0--000-3h0--000-3h0--00-3-3/5\3h0-|6x
D# |-----------------------------------------|
G# |-----------------------------------------|

BETWEEN VERSES (BRIDGE)
A# |-----------------|
F  |-----------------|
C# |-----------------|5x(I think) 
G# |-----------------|
D# |-----------------|
G# |0-3h0-0-3b(1/2)--|

VERSE x 6

A# |-----------------|
F  |-----------------|
C# |-----------------|
G# |-----------------|5x(I think) 
D# |-----------------|
G# |0-3h0-0-3b(1/2)--|

I HIDE INSIDE...
A# |---------------------------------------------------------------------------|
F  |---------------------------------------------------------------------3/5-5-|
C# |---------------------------------------------------------------------1/3-3-|
G# |---------------------------------------------------------------------------|
D# |-0-0-0-0-1/3-3--0-0-0-0-1/3-3--0-0-0-0-1/3-3--0-0-0-0-1/3-3--0-0-0-0-------|
G# |-0-0-0-0-1/3-3--0-0-0-0-1/3-3--0-0-0-0-1/3-3--0-0-0-0-1/3-3--0-0-0-0-------|



My World
Dropped C

 Intro
d|------------------------------------|----------------------------------------|
A|------------------------------------|----------------------------------------|
F|o----------------------------------o|----------------------------------------|
C|o--------------------------0-------o|-------------------------0--------------|
G|---------------------------0--------|-------------------------2--------------|
C|--0--0----0--0--0--0-------0--------|-0--0----0--0--0--0------1--------------|
    pm---------------|			pm---------------|
	     End Intro    Riff A				      End Riff A
d|----------------------|------------------------------------------------------|
A|----------------------|------------------------------------------------------|
F|----------------------|o----------------------------------------------------o|
C|----------------------|o----------------------------------------------------o|
G|----------------------|-------------------------------------0h3h5~-----------|
C|--0--0----0--0--0--0--|--0--0--0--3--0--0--5--0--0--0--0--0------------------|
    pm---------------|	      pm-|     pm-|     pm-|     pm-|
  Riff A1                              End Riff A1
d|------------------------------------------------|----------------------------|
A|------------------------------------------------|----------------------------|
F|o----------------------------------------------o|----------------------------|
C|o----------------------------------------------o|----------------------------|
G|--------------------------------------0h3h5~----|----------------------------|
C|--0--0--0--3--0--0--5--0--0--0--0--0------------|----------------------------|
       pm-|     pm-|     pm-|     pm-|
  Riff A2                             End Riff A2 Riff B
d|-----------------------------------------------|-----------------------------|
A|-----------------------------------------------|-----------------------------|
F|o---------------------------------------------o|o----------------------------|
C|o---------------------------------------------o|o----------------------------|
G|--0------3------5----------0----------0h3h5~---|-----------------------------|
C|--0------3------5----------0-------------------|--0--0--0--3--0--0--5--0--0--|
						       pm-|     pm-|     pm-|
						    |1,              End Riff B
d|-----------------------------------------------------------------------------|
A|-----------------------------------------------------------------------------|
F|----------------------------------------------------------------------------o|
C|----------------------------------------------------------------------------o|
G|-----------0h3h5~----0---------3--------5----------3----------0--------------|
C|--0--0--0------------0---------3--------5----------3----------0--------------|
       pm-|
   |2,
d|------------------------------------------|----------------------------------|
A|------------------------------------------|----------------------------------|
F|------------------------------------------|----------------------------------|
C|------------------------------------------|---Repeat-Riff-B-Six-Times-More---|
G|--(5)----3----------0---------------------|----------------------------------|
C|--(5)----3----------0---------------------|----------------------------------|

  Riff A3						            End Riff A3
d|-----------------------------------------------------------------------------|
A|-----------------------------------------------------------------------------|
F|o---------------------------------------------------------------------------o|
C|o---------------------------------------------------------------------------o|
G|--0-------3---------5----------------------------------------(5)-------------|
C|--0-------3---------5----------------------------------------(5)-------------|
								             x3
  Riff A4 - Half Time Feel				            End Riff A4
d|-----------------------------------------------------------------------------|
A|-----------------------------------------------------------------------------|
F|o---------------------------------------------------------------------------o|
C|o---------------------------------------------------------------------------o|
G|--F5--D5--------F5--D5--------G5----Ab5--D5------After-this-play-Riff-A-x4---|
C|-------------------------------------------------then-Riff-A2-x2-------------|
									     x7
  Riff C - End Half Time Feel					     End Riff C
d|-----------------------------------------------------------------------------|
A|-----------------------------------------------------------------------------|
F|o---------------------------------------------------------------------------o|
C|o---------------------------------------------------------------------------o|
G|-----------------------------------------------------------------------------|
C|--3p0--0--0--0--0--3p0------5---6p0---3p0--0--0--0--0--3p0-----5-----6p0-----|
         pm    pm-|			     pm    pm-|
  Riff D		       End Riff D Riff E		     End Riff E
d|---------------------------------------|-------------------------------------|
A|---------------------------------------|-------------------------------------|
F|o----------------------------5-(5)/7--o|o----------------------------5------o|
C|o----------------------------5-(5)/7--o|o----------------------------5------o|
G|-----------------------------3-(3)/5---|-----------------------------3-------|
C|--0--0--0--3--0--0--0--0--0------------|--0--0--0--3--0--0--0--0--0----------|
    pm----------------------|	    Repeat these 2 riffs in succession 14 times

d|-----------------------------------------------------------------------------|
A|-----------------------------------------------------------------------------|
F|o---------------------------------------------------------------------------o|
C|o---------------------------------------------------------------------------o|
G|-----------0-----------3p0--2p0--0/6-------------------------3p0--2p0--0/6---|
C|--0--0--0-----0--0--0--3p0--2p0--0/6----0--0--0--0--0--0--0--3p0--2p0--0/6---|
    pm----|     pm-|                      pm-------------|

d|-----------------------------------------------------------------------------|
A|-----------------------------------------------------------------------------|
F|-----------------------------------------------------------------------------|
C|-----------------------------------------------------------------------------|
G|-----------0-----------3p0--2p0--0/6--0--0--0--0--0--0--0--0--0--3--3--0--2--|
C|--0--0--0-----0--0--0--3p0--2p0--0/6--0--0--0--0--0--0--0--0--0--3--3--0--2--|
    pm----|     pm-|

d|-----------------------------------------------------------------------------|
A|-----------------------------------------------------------------------------|
F|-----------------------------------------------------------------------------|
C|-----------------------------------------------------------------------------|
G|--0--0/6------------------Repeat-riff-C-x1-then-riff-A4-x8-------------------|
C|--0--0/6---------------------------------------------------------------------|

  Riff F
d|---------------------------------------------------|-------------------------|
A|---------------------------------------------------|-------------------------|
F|o-------------------------------------------------o|-------------------------|
C|o-------------------------------------------------o|-------------------------|
G|--0--------------------------------------------0---|--0---------------0------|
C|--0--0--3--0--5--0--6--0--5--0--3--0--5--0--6--0---|--0---------------0------|
       pm    pm    pm    pm    pm    pm    pm
				           harms-------|
d|-----------------------------------------------------------------------------|
A|-----------------------------------------3--3--------------------------------|
F|------------------------------------------------3----------------------------|
C|-----------------------------------------------------------------------------|
G|--0----------------0--0------------------------------0-----------------------|
C|--0----------------0--0------------------------------0-----------------------|


Shoot Me Again
Drop C

intro part 1
I-xxxxxxxxxxxxxxxxxxxI----------------I
I-xxxxxxxxxxxxxxxxxxxI---0---0---0---0I
I-xxxxxxxxxxxxxxxxxxxI---0---0---0---0I
I-xxxxxxxxxxxxxxxxxxxI---0---0---0---0I
Rock wah w/ some delay   
Intro Part 2
I-----------------------------I
I--0-0000--0-0000-0-00-0-0000-I
I--0-0000--0-0000-0-00-0-0000-I
I--0-0000--0-0000-0-00-0-0000-I
PM   ....    ....   ..   ....

riff 1
I---------------------I
I----------------1~~--I X4
I-00--5^6RB-000--1~~--I
I-00--------000--1~~--I
pm..        ...

riff 2 GUITAR 1
I------------------------------------------------------I
I--------------------------------------1111111---------I X2
I--------------------------------------1111111---------I
I-0--X--00-XX-0-X-00-XX-XXX-1-X-1-1-XX-1111111---------I

riff 2 GUITAR 2 add some flanger or phase to get it to sound right
I---7-----------8-----------------------I
I-7---7--10---8-----1111111-------------I  X2
I-5------8----6-----1111111-------------I
I-------------------1111111-------------I
                      
riff 1 X4
riff 2 X2

riff 3 "shoot me again i ain't dead yet!"
I--------------------------I
I--------------------------I X4                 
I------0--3--1--1H2H3--3---I
I--XX--0--3--1--1H2H3--3---I

riff 4 "shoot me again, shoot me again, come on".. just make a buncha string noise...haha
I---------------------------------------------I
I--0--XXXX--0-XXXX-0-XXXX---XXXXXXXXXXXXXXXX--I X1
I--0--XXXX--0-XXXX-0-XXXX---XXXXXXXXXXXXXXXX--I
I--0--XXXX--0-XXXX-0-XXXX---XXXXXXXXXXXXXXXX--I

riff 5 "ALLLLLLL THE SHOOTS I TAKE!"
I------------------------------------------------------------------------I
I-------------------------------------------------/7/8888-7/8888-7/88----I X2
I----0---0------------3---3-------------1---1-----/5/6666-5/6666-5/66----I
I-00-0-0-0-00~-0-0H33-3-3-3-3~~3-1H3-11-1-1-1-1--------------------------I
pm   .   .            .   .             .   .

FILL 1.."ALL THE SHOOTS, ALL THE SHOOTS"
I---------------I
I---------------I
I--000000-0-----I
I--000000-0-----I

riff 5 X2 this time dont let the low C ring..lil different than the 1st time.
riff 1 X4
riff 2 X2
riff 1 X4
riff 2 X2
riff 3 X4
riff 4 X1
riff 5 X2
fill 1 X1
riff 5 X2
riff 1 X4
INTRO
 Then at the end...had a slap back delay on riff 1..guitar 1 should do the low C palm mute..
 and guitar 2 should do the bend/release with delay..
fill 2
I---------------------I
I---------------------I
I-000000000-----------I
I-000000000-----------I

riff 6
I------------------------------------------I
I------------------------------------------I
I-1-0-1-0-1-0-1-0-1-0-1-0-1-0-1-0-1-0-1-1~-I
I-1-0-1-0-1-0-1-0-1-0-1-0-1-0-1-0-1-0-1-1~-I

fill 3
I--------------------------------------I
I--12h13131313--12h13131313--12h1313---I



Sweet Amber
dropped C tuning

Gtr 1
|-----------------------------------|-----------------------------------|--
|-----------------------------------|-----------------------------------|--
|-----------------------------------|-----------------------------------|--
|------------------------15^(17)15~-|------------------------15^(17)15~-|--
|---15---(17)17~--15-17-------------|---15---(17)17~--15-17-------------|--
|-----------------------------------|-----------------------------------|--
|
|*Added 5th tabbed for guitar
|-----------------------------------|-----------------------------------|--
|-----------------------------------|-----------------------------------|--
|------------------------15^(17)15~-|------------------------15^(17)15~-|--
|---15---(17)17~--15-17-------------|---15---(17)17~--15-17-------------|--
|-----------------------------------|-----------------------------------|--
|-----------------------------------|-----------------------------------|--

 -----------------------------------|-----------------------------------|
 -----------------------------------|-----------------------------------|
 -----------------------------------|-----------------------------------|
 ------------------------15^(17)15~-|-----------------------------------|
 ---15---(17)17~--15-17-------------|---15---(17)17~~~------------------|
 -----------------------------------|-----------------------------------|

 -----------------------------------|-----------------------------------|
 -----------------------------------|-----------------------------------|
 ------------------------15^(17)15~-|-----------------------------------|
 ---15---(17)17~--15-17-------------|---15---(17)17~~~------------------|
 -----------------------------------|-----------------------------------|
 -----------------------------------|-----------------------------------|

Gtr 1 w/dist

|----------------------------------------------------|--------------------------
|----------------------------------------------------|--------------------------
|----------------------------------------------------|--------------------------
|--X---XX---X----------------------------------------|--------------------------
|--X---XX---X----3---5-5?-5?-5-5-5--3-5---8^(10)8----|---3---5-5--5?-5-5-5--3-5-
|--X---XX---X----0---0-0?-0--0-0-0--0-0---0----------|---0---0-0--0--0-0-0?-0-0-
|--Rhy Fig 1

-------------|---------------------------------------|-----------------------------
-------------|---------------------------------------|-----------------------------
-------------|---------------------------------------|-----------------------------
-------------|---------------------------------------|-----------------------------
--8^(10)8----|---3---5-5--5?-5-5-5--3-5---8^(10)8----|---3---5-5--5--5-5-5?-5--5-5-
--0----------|---0---0-0?-0?-0-0-0?-0-0---0----------|---0---0-0?-0?-0-0-0?-0?-0-0-

--------------------|
--------------------|
--------------------|
--------------------|
-5-5?-5?-5-5-5-5----|
-0-0?-0?-0-0-0-0----|
     End Rhy Fig 1--|

|---------------------------------------|---------------------------------------
|---------------------------------------|---------------------------------------
|---------------------------------------|---------------------------------------
|---------------------------------------|---------------------------------------
|---3---5-5?-5?-5-5-5--3-5---8^(10)8----|---3---5-5?-5?-5-5-5--3-5---8^(10)8----
|---0---0-0--0--0-0-0--0-0---0----------|---0---0-0--0--0-0-0--0-0---0----------
|--Rhy Fig 2
|
|Gtr 2
|---------------------------------------|---------------------------------------
|---------------------------------------|---------------------------------------
|---------------------------------------|---------------------------------------
|---------------------------------------|---------------------------------------
|---------------------------------------|--(5)?-5-5-----------------------------
|---------------------------------------|---0---0-0-----------------------------

 ---------------------------------------|------------------------
 ---------------------------------------|------------------------
 ---------------------------------------|------------------------
 ---------------------------------------|------------------------
 ---3---5-5?-5?-5-5-5--3-5---8^(10)8----|---3---5-5--5--5-5-5?-5-
 ---0---0-0--0--0-0-0--0-0---0----------|---0---0-0?-0?-0-0-0?-0?
|                                                                        
 ---------------------------------------|
 ---------------------------------------|
 ---------------------------------------|
 ---------------------------------------|
 ---5---5-5--5--------------------------|
 ---0---0-0--0--------------------------|


 -----------------------|
 -----------------------|   
 -----------------------|
 -----------------------|
 -5-5-5-5?-5?-5-5-5-5---|
 -0-0-0-0?-0?-0-0-0-0---|
         End Rhy Fig 2--|  

 Grt 2 w/Rhy Fig 2 (Grt1)
||---------------------------------------|---------------------------------------
||---------------------------------------|---------------------------------------
||*--------------------------------------|---------------------------------------
||*--------------------------------------|---------------------------------------
||---3---5-5?-5?-5-5-5--3-5---8^(10)8----|---3---5-5?-5?-5-5-5--3-5---8^(10)8----
||---0---0-0--0--0-0-0--0-0---0----------|---0---0-0--0--0-0-0--0-0---0----------

  ---------------------------------------|-------------------------
  ---------------------------------------|-------------------------
  ---------------------------------------|-------------------------
  ---------------------------------------|-------------------------
  ---3---5-5?-5?-5-5-5--3-5---8^(10)8----|---3---5-5--5--5-5-5?-5--
  ---0---0-0--0--0-0-0--0-0---0----------|---0---0-0?-0?-0-0-0?-0?-

  -----------------------||
  -----------------------||   
  ----------------------*||
  ----------------------*||
  -5-5-5-5?-5?-5-5-5-5---||
  -0-0-0-0?-0?-0-0-0-0---||

 Gtr 1 w/Rhy Fig 2 (Gtr 2)
|---------------------------------------|------------------
|---------------------------------------|------------------
|---------------------------------------|------------------
|---15^(17~~)-----------------15^(17)15-|------------------
|-----------17~~~------15-17------------|---15--17-17?-17?-
|----------------------0--0-------------|---0---0--0---0---
                                        |--Rhy Fig 3                    

------------------------------|----------------------------------------------|
------------------------------|----------------------------------------------|
------------------------------|----------------------------------------------|
--------------------15^(17)15-|------------------------------------15^(17)15-|
--17-17-17--15-17-------------|---15--17-17?-17?-17-17-17--15-17-------------|
--0--0--0---0--0--------------|---0---0--0---0---0--0--0---0--0--------------|
               End Rhy Fig 3--|

|----------------------------------------------------------------|
|----------------------------------------------------------------|
|----------------------------------------------------------------|
|----------------------------------------------------------------|
|---15---17-17--17--17-17-17?-17--17-17--17-17?-17?-17-17-17-17--|
|---0----0--0---0---0--0--0---0---0?-0---0?-0---0---0?-0?-0?-0---|
|--Rhy Fill 1                                    End Rhy Fill 1--|   
 

 Verse 1 

 Gtrs 2 w/Rhy Fig 3 (x3) and Rhy Fill 1 (x1)

 Wash your back so you won?t stab mine    Get in bed with your own kind
||--------------------------------------|---------------------------------------|
||--------------------------------------|---------------------------------------|
||*-------------------------------------|---------------------------------------|
||*-------------------------------------|---------------------------------------|
||--3---5-5--5?-5-5-5--3-5---8^(10)8----|---3---5-5--5?-5-5-5--3-5---8^(10)8----|
||--0---0-0?-0?-0-0-0?-0-0---0----------|---0---0-0?-0?-0-0-0?-0-0---0----------|

 Live your life so you don?t see mine       Drape your back so 
|---------------------------------------|-----------------------------
|---------------------------------------|-----------------------------
|---------------------------------------|-----------------------------
|---------------------------------------|-----------------------------
|---3---5-5--5?-5-5-5--3-5---8^(10)8----|---3---5-5--5--5-5-5?-5--5-5-
|---0---0-0?-0?-0-0-0?-0-0---0----------|---0---0-0?-0?-0-0-0?-0?-0-0-

  you won?t shine
 --------------------||
 --------------------||
 -------------------*||
 -------------------*||
 -5-5?-5?-5-5-5-5----||
 -0-0?-0?-0-0-0-0----||

Pre-Chorus 1
 Gtr 1
 
 O__________________h  then she holds my hand   and I lie to get a smile
||-----------------------------------------------------------------------
||-----------------------------------------------------------------------
||*----------------------------------------------------------------------
||*--0?-------------(0)---------------------10-------8------6------------
||---0?-------------(0)---------------------10-------8------6------------
||---0?-------------(0)---------------------10-------8------6------------
|--Rhy Fig 4a
|
| Gtr 2
|------------------------------------------------------------------------
|------------------------------------------------------------------------
|------------------------------------------------------------------------
|---0--------------(0)----------------------3--------8------6------------
|---0--------------(0)----------------------3--------8------6------------
|---0--------------(0)----------------------3--------8------6------------
|--Rhy Fig 4b
 
|1.
|----------------------------------------|----------------------------------------||
|----------------------------------------|----------------------------------------||
|----------------------------------------|---------------------------------------*||
|---------------------3-------3-2--------|---------------------3-------3-2-------*||
|---------------------3-------3-2--------|---------------------3-------3-2--------||
|---0---0-0---0-0----------0-------------|---0---0-0---0-0----------0-------------||
|
|Gtr 2
|----------------------------------------|----------------------------------------||
|----------------------------------------|----------------------------------------||
|----------------------------------------|---------------------------------------*||
|---------------3-----3-------3-2--------|---------------3-----3-------3-2-------*||
|---------------3-----3-------3-2--------|---------------3-----3-------3-2--------||
|---0---0-0---0-0----------0-------------|---0---0-0---0-0----------0-------------||

|2. Using what I want to get what you want   Using what I want to get what you want
||---------------------------------------|----------------------------------------||
||---------------------------------------|----------------------------------------||
||*--------------------------------------|---------------------------------------*||
||*-------------------3-------3-2--------|---------------------3-------3-2-------*||
||--------------------3-------3-2--------|---------------------3-------3-2--------||
||--0---0-0---0-0----------0-------------|---0---0-0---0-0----------0-------------||
|                                                                 End Rhy Fig 4a--||
|                                                                                 ||
|Gtr 2                                                                            ||
||---------------------------------------|----------------------------------------||
||---------------------------------------|----------------------------------------||
||*--------------------------------------|---------------------------------------*||
||*-------------3-----3-------3-2--------|---------------3-----3-------3-2-------*||
||--------------3-----3-------3-2--------|---------------3-----3-------3-2--------||
||--0---0-0---0-0----------0-------------|---0---0-0---0-0----------0-------------||
|                                                                 End Rhy Fig 4b--||

 Chorus

 Gtrs 1&2
 Oo_______________h  Sweet Amber                    How sweet are you?
|--------------------------------------------------------------------------
|--------------------------------------------------------------------------
|--------------------------------------------------------------------------
|---0------(0)-------2--------8-----6-----0-0-0--3--5---0-0--5-0-----------
|---0------(0)-------2--------8-----6-----0-0-0--3--5---0-0--5-0-----------
|---0------(0)-------2--------8-----6-----0-0-0--3--5?--0-0?-5-0-----------

              How sweet does it get?           How sweet are yo__u?
 -----------------------------------------------------------------------------------
 ---------------------------------------------------------------------------------
 ---------------------------------------------------------------------------------
 ---0-0-0--3--5---0-0--5-0------------0-0-0--3--5?--0-0?-5-0---------------------
 ---0-0-0--3--5---0-0--5-0------------0-0-0--3--5?--0-0?-5-0---------------------
 ---0-0-0--3--5?--0-0?-5-0------------0-0-0--3--5?--0-0?-5-0----------------------

             How sweet does it Get?
 -----------------------------------|
 -----------------------------------|
 -----------------------------------|
 ---0-0-0--3--5---0-0--5-0----------|
 ---0-0-0--3--5---0-0--5-0----------|
 ---0-0-0--3--5?--0-0?-5-0----------|


 Rhy Fig 1 [x1] (Gtr 1)

 Rhy Fig 2 Gtrs 1&2


 Gtrs 2 w/Rhy Fig 3 (x3) and Rhy Fill 1 (x1)

 Chase the rabbit, fetch the stick          She rolls me over ?till I?m sick 
||--------------------------------------|---------------------------------------|
||--------------------------------------|---------------------------------------|
||*-------------------------------------|---------------------------------------|
||*-------------------------------------|---------------------------------------|
||--3---5-5--5?-5-5-5--3-5---8^(10)8----|---3---5-5--5?-5-5-5--3-5---8^(10)8----|
||--0---0-0?-0?-0-0-0?-0-0---0----------|---0---0-0?-0?-0-0-0?-0-0---0----------|

 She deals in habits, deals in pain          I run away, but  
|---------------------------------------|-----------------------------
|---------------------------------------|-----------------------------
|---------------------------------------|-----------------------------
|---------------------------------------|-----------------------------
|---3---5-5--5?-5-5-5--3-5---8^(10)8----|---3---5-5--5--5-5-5?-5--5-5-
|---0---0-0?-0?-0-0-0?-0-0---0----------|---0---0-0?-0?-0-0-0?-0?-0-0-

  I?m back again
 --------------------||
 --------------------||
 -------------------*||
 -------------------*||
 -5-5?-5?-5-5-5-5----||
 -0-0?-0?-0-0-0-0----||

 Pre-Chorus 2
 w/Figures 4a and b (with repeats) 

| O__________________h  then she holds my hand   and I lie to get a smile
|--------------------------------------------------------------------------------

|----------------------------------------|---------------------------------------

| O__________________h  and she sqeezes tighter, I still lie to get a smile
|---------------------------------------------------------------------------------

| Using what I want to get what you want   Using what I want to get what you want
|----------------------------------------|----------------------------------------

| Using what I want to get what you want   Using what I want to get what you want
|----------------------------------------|----------------------------------------|

Repeat Chorus

Bridge 1

 Gtr 1
||-------------------------------------------------------|---------------
||-------------------------------------------------------|---------------
||*------------------------------------------------------|---------------
||*------------------------------------------------------|---------------
||--17--17-17-17---17?-17-17-17---17--17-17-17---20-17---|--19--19-19-19-
||--0---0--0--0----0---0--0--0----0---0--0--0----0--0----|--0---0--0--0--
|--Rhy Fig 5a

 ---------------------------------------||
 ---------------------------------------||
 --------------------------------------*||
 --------------------------------------*||
 --19--19-19-19---19--19-19-19---20-19--||
 --0---0--0--0----19--19-19-19---19-19--||
                         End Rhy Fig 5a--|


 Gtr 2 w/Rhy Fig 5a (with repeats)
||-------------------------------------------------------|---------------
||-------------------------------------------------------|---------------
||*------------------------------------------------------|---------------
||*------------------------------------------------------|---------------
||--5--5--5--5----5---5--5--5----5---5--5--5----5--5-----|--7---7?-7?-7--
||--0--0--0--0----0---0--0--0----0---0--0--0----0--0-----|--0---0--0--0--
|--Rhy Fig 5b

  ---------------------------------------|| 
  ---------------------------------------||
  --------------------------------------*||
  --------------------------------------*||
  --7---7?-7?-7----7---7?-7?-7----7?-7---||
  --0---0?-0?-0----7---7?-7?-7----7?-7---||
                         End Rhy Fig 5b--||


 W/ Rhy Figs 5a&b with repeats

|       She holds the pen that spells the end,            she traces me   
|-------------------------------------------------------|----------------
 
        and draws me in
  --------------------------------------*||
                                        *||

Gtrs 1&2
 Oo_______________h  Sweet Amber                    How sweet are you?
|--------------------------------------------------------------------------
|--------------------------------------------------------------------------
|--------------------------------------------------------------------------
|---0------(0)-------2--------8-----6-----0-0-0--3--5---0-0--5-0-----------
|---0------(0)-------2--------8-----6-----0-0-0--3--5---0-0--5-0-----------
|---0------(0)-------2--------8-----6-----0-0-0--3--5?--0-0?-5-0-----------

Bridge 2

Gtr 1
||-------------------------------------------------------|---------------
||-------------------------------------------------------|---------------
||*------------------------------------------------------|---------------
||*------------------------------------------------------|---------------
||--5---5?-5?-5----5---5--5?-5----5---5?-5?-5----8?-5----|--7---7?-7?-7--
||--0---0--0--0----0---0--0--0----0---0--0--0----0--0----|--0---0--0--0--
|
| Gtr 2                                       N.H--------|
||-------------------------------------------------------|---------------
||-------------------------------------------------------|---------------
||*------------------------------------------------------|---------------
||*------------------------------------------------------|---------------
||--7---5--0--0----7---5--0--0----7---5--0--0------------|--7---8?-7?-7--
||--0---0--0--0----0---0--0--0----0---0--0--0----5-5-5-5-|--0---0--0--0--

  ---------------------------------------||
  ---------------------------------------||
  --------------------------------------*||
  --------------------------------------*||
  --7---7?-7?-7----7---7?-7?-7----8--7---||
  --0---0?-0?-0----7---7?-7?-7----7--7---||
  
                               N.H-------|
  ---------------------------------------||
  ---------------------------------------||
  --------------------------------------*||
  --------------------------------------*||
  --7---8?-7?-7----7---8?-7?-7-----?-----||
  --0---0?-0?-0----7---7?-7?-7---5-5?5-5-||

Repeat Chorus

 Outro
 
 Gtr 1
|---------------------------------------|---------------------------------------
|---------------------------------------|---------------------------------------
|---------------------------------------|---------------------------------------
|---------------------------------------|---------------------------------------
|---3---5-5?-5?-5-5-5--3-5---8^(10)8----|---3---5-5?-5?-5-5-5--3-5---8^(10)8----
|---0---0-0--0--0-0-0--0-0---0----------|---0---0-0--0--0-0-0--0-0---0----------

                                          It?s never as sweet as it seems
 ---------------------------------------|------------------------------------|
 ---------------------------------------|------------------------------------|
 ---------------------------------------|------------------------------------|
 ---------------------------------------|---0?---3-2--0?---5-3---0-0-(0)-----|
 ---3---5-5?-5?-5-5-5--3-5---8^(10)8----|---0?---3-2--0?---5-3---0-0-(0)-----|
 ---0---0-0--0--0-0-0--0-0---0----------|---0?---3-2--0?---5-3---0-0?(0)-----|



The Unnamed Feeling
Dropped C   CGCFAD

Riff 1:
D|-------------------|
A|-------------------|
F|-------------------|
C|-0-----------------|
G|-0---0---0--0-0-0--|
C|-0---0---0--0-0-0--|
       .   .  . . .pm

Riff 2:
D|------------------|
A|------------------|
F|------------------|
C|--0---------------|
G|--0---0---0--0-0--|
C|--0---0---0--0-0--|
       .   .  . . pm

Riff 3:
D|-play this-|---------------|
A|-only the--|---------------|
F|-1st time--|---------------|
C|-----------|---------------|
G|-0-0--0-0--|-0-0-0-0--0-0--|
C|-0-0--0-0--|-0-0-0-0--0-0--|
   . .  . .    . . . .  . . pm

Riff 4:
D|---------------------------------|
A|---------------------------------|
F|---------------------------------|
C|---------------------------------|
G|-0-0--0-0---------0--0-0---------|
C|-0-0--0-0--2b3r2--0--0-0--2b3r2--|
   . .  . .         .  . . pm 

Riff 5 (clean):
D|-----------------------------------------------------------------|
A|-----------------------------------------------------------------|
F|--------2--2--2---------7--7--7----------2--2--2--------5--5--5--|
C|--------0--0--0---------5--5--5----------0--0--0--------3--3--3--|
G|---0----------------3----------------0--------------3------------|
C|-0---0----------0/3---3------------0---0--------0/3---3----------|

Riff 6:
D|------------------------|
A|------------------------|
F|------------------------|
C|-8---------7---------0--|
G|-8--(0-0)--7--(0-0)--0--|
C|-8--(0-0)--7--(0-0)--0--|
       . .       . . pm
Riff 7:
D|-----------|
A|-----------|
F|-----------|
C|-----------|
G|-0-0-------|
C|-0-0-1b2b1-|
   . .pm

Riff 8:
D|-------|
A|-------|
F|-3--2--|
C|-3--2--|
G|-1--0--|
C|-------|

Riff 9a (clean):
D|--------------------------3--3--3-------------------------------------------|
A|--------3--3--3-----------6--6--6---------6--6--6---------------------------|
F|--------2--2--2-----------5--5--5---------5--5--5-----------------5--7-7-5--|
C|--------0--0--0-----5---------------------3--3--3-------------5---5--5-5-5--|
G|---0--------------3---3----------------3-----------8--7--5--3---3-----------|
C|-0---0-------------------------------3---3---------8--7--5------------------|
                                                                              
D|-------------------------3--3--3----------------------------------|
A|--------3--3--3----------6--6--6---------6--6--6---------8--8--8--|
F|--------2--2--2----------5--5--5---------5--5--5---------7--7--7--|
C|--------0--0--0-----5--------------------3--3--3---------5--5--5--|
G|---0--------------3---3--------------3----------------5-----------|
C|-0---0-----------------------------3---3-----------/5---5---------|

Riff 9b (clean):
D|--------------------------3--3--3-------------------------------------------|
A|--------3--3--3-----------6--6--6---------6--6--6---------------------------|
F|--------2--2--2-----------5--5--5---------5--5--5-----------------5--7-7-5--|
C|--------0--0--0-----5---------------------3--3--3-------------5---5--5-5-5--|
G|---0--------------3---3----------------3-----------8--7--5--3---3-----------|
C|-0---0-------------------------------3---3---------8--7--5------------------|

D|--------------------------3--3--3--------------------------------------------------|
A|--------3--3--3-----------6--6--6---------6--6--6---------5--5--5---------6--6--6--|
F|--------2--2--2-----------5--5--5---------5--5--5---------4--4--4---------5--5--5--|
C|--------0--0--0-----5---------------------3--3--3---------2--2--2---------3--3--3--|
G|---0--------------3---3--------------3----------------2---------------3------------|
C|-0---0-----------------------------3---3------------2---2-----------3---3----------|

Riff 9c (clean):
D|--------------------------3--3--3-------------------------------------------|
A|--------3--3--3-----------6--6--6---------6--6--6---------------------------|
F|--------2--2--2-----------5--5--5---------5--5--5-----------------5--7-7-5--|
C|--------0--0--0-----5---------------------3--3--3-------------5---5--5-5-5--|
G|---0--------------3---3----------------3-----------8--7--5--3---3-----------|
C|-0---0-------------------------------3---3---------8--7--5------------------|

D|--------------------------3--3--3--------------------------------------------------|
A|--------3--3--3-----------6--6--6---------6--6--6---------5--5--5---------6--6--6--|
F|--------2--2--2-----------5--5--5---------5--5--5---------4--4--4---------5--5--5--|
C|--------0--0--0-----5---------------------3--3--3---------2--2--2---------3--3--3--|
G|---0--------------3---3--------------3----------------2---------------3------------|
C|-0---0-----------------------------3---3------------2---2-----------3---3----------|

D|------------------|
A|---------8--8--8--|
F|---------7--7--7--|
C|---------5--5--5--|
G|----5-------------|
C|--5---5-----------|

Riff 10a:
D|---------------------------------------------------|
A|---------------------------------------------------|
F|--------------5----------------3-2-0------------5--|
C|----------0---5----------------0-0-0----5-5-5-5-5--|
G|-0-0-0-0--0---3---0-3--330--3--0-0-0--3-3-3-3-3-3--|
C|-0-0-0-0--0-------0-3--330--3--0-0-0---------------|
       . .          .    ...            . . . . . pm

D|-----------------------------------------------------------------------------------------|
A|-----------------------------------------------------------------------------------------|
F|--------------5--------------------------------------------------------------------------|
C|--------------5----------------2------2------2----3------3------3----5------5------5-----|
G|-0-0-0-0--0---3---0-3--330--3--2------2------2----3------3------3----5------5------5-----|
C|-0-0-0-0--0-------0-3--330--3--2-2222-2-2222-2-22-3-3333-3-3333-3-33-5-5555-5-5555-5-55--|
       . .          .    ...       ....   ....   ..   ....   ....   ..   ....   ....   ..pm

Riff 10b:
D|---------------------------------------------------|
A|---------------------------------------------------|
F|--------------5----------------3-2-0------------5--|
C|----------0---5----------------0-0-0----5-5-5-5-5--|
G|-0-0-0-0--0---3---0-3--330--3--0-0-0--3-3-3-3-3-3--|
C|-0-0-0-0--0-------0-3--330--3--0-0-0---------------|
       . .          .    ...            . . . . . pm

D|----------------------------------------------------------------|
A|----------------------------------------------------------------|
F|--------------5-------------------------------------------------|
C|--------------5----------------2------2------2----3---2-3-5-3-2-|
G|-0-0-0-0--0---3---0-3--330--3--2------2------2----3---2-3-5-3-2-|
C|-0-0-0-0--0-------0-3--330--3--2-2222-2-2222-2-22-3---2-3-5-3-2-|
     . .            .    ...       ....   ....   ..pm
Riff 11 (guitar 2 plays upper notes):
D|---------------------------------|
A|-----------9---------------------|
F|-----------11b13-----------------|
C|---------------------------------|
G|-0-0--0-0---3-2---0-0--0-0--3-2--|
C|-0-0--0-0---3-2---0-0--0-0--3-2--|
   . .  . .   . .   . .  . .  . . pm
Riff 12:
D|----------------|
A|----------------|
F|----------------|
C|----------------|
G|-0-0--0-0--3-2--|
C|-0-0--0-0--3-2--|
   . .  . .pm
Riff 13:
D|--------------|
A|--------------|
F|--------------|
C|--------------|
G|------0--0-0--|
C|-3p0--0--0-0--|
           .  pm
Riff 14:
------------------------------|
------------------------------|
------------------------------|
------------------------------|
---8---7---0-----8---7---0-0--|
-0-8-0-7-0-0---0-8-0-7-0-0-0--|
 . . . . .     . . . . .pm

Riff 15a:
-------------------------------------------------|
-------------------------------------------------|
-------------------------------------------------|
------1^b2r1-----1^b2r1------1^b2r1------1^b2r1--|
-------------------------------------------------|
-0000--------0000-------0000--------0000---------|
 ....        ....       ....        ....pm
Riff 15b:
--------------------------------------------------------------------------|
--------------------------------------------------------------------------|
--------------------------------------------------------------------------|
------1^b2r1-1^b2r1------1^b2r1-1^b2r1-------1^b2r1-1^b2r1-1^b2r1-1^b2r1--|
--------------------------------------------------------------------------|
-0000---------------0000---------------0000-------------------------------|
 ....               ....               ....pm

Song structure:
Intro:
Riff 1 (4x) - At the 3rd time, guitar 2 starts playing riff 5 (play it five times)
Riff 2 (4x)
Riff 3 (2x)
Riff 4 (2x)
Riff 6 (6x)
Riff 7 (8x)
Riff 8 (1x)
Riff 7 (4x)
Riff 8 (1x)
Riff 4 (2x)
Riff 8 (1x)

Verse 1:
Riff 4 (2x)
Riff 8 (1x)
Riff 4 (2x)
Riff 8 (1x)
Riff 4 (4x)
Riff 8 (1x)

Pre chorus:
Riff 7 (14x)
Riff 8 (1x)
Riff 4 (2x)
Riff 8 (1x)

Chorus:
Riff 9a (1x)

Instrumental part 1:
Riff 7 (8x)
Riff 8 (1x)
Riff 7 (4x)
Riff 8 (1x)

Verse 2:
Riff 4 (2x)
Riff 8 (1x)
Riff 4 (2x)
Riff 8 (1x)
Riff 4 (4x)
Riff 8 (1x)

Pre chorus:
Riff 7 (14x)
Riff 8 (1x)
Riff 4 (2x)
Riff 8 (1x)

Chorus:
Riff 9b (1x)
Riff 9c (1x)
Riff 10 (1x)

Instrumental part 2:
Riff 11 (4x)

Bridge (Get the *** out of here...)
Riff 12 (8x) - at the fourth time, guitar 2 starts playing riff 5 (play it four times)
Riff 8 (1x)

Instrumental part:
Riff 13 (1x)
Riff 8 (1x)
Riff 13 (1x)
Riff 8 (1x)
Riff 13 (1x)
Riff 8 (1x)
Riff 14 (1x)
Riff 8 (1x)
Riff 13 (1x)
Riff 8 (1x)
Riff 13 (1x)
Riff 8 (1x)
Riff 13 (4x)
Riff 8 (1x)
Riff 15a (2x)
Riff 15b (1x)
Riff 7 (4x)

Chorus:
Riff 10b (1x)
Riff 10a (1x)
Riff 9a (1x)


Purify
Dropped D

-|--------------------------------|-----------------------------------------|-
-|--------------------------------|-----------------------------------------|-
-|--------------------------------|-----------------------------------------|-
-|--0-0-3-0-3-3-0-3--3-0-3h5-5-0--|-----------------------------------------|-
-|--0-0-3-0-3-3-0-3--3-0-3h5-5-0--|-----------------------------------------|-
-|--0-0-3-0-3-3-0-3--3-0-3h5-5-0--|-----------------------------------------|-
  pm. .   .     .      .     .                                                

-|--------------------------------------------------------------------------|-
-|--------------------------------------------------------------------------|-
-|--------------------------------------------------------------------------|-
-|--0-0----0-0----0-0----0-0----0-0----0-0----0-0----0-0--------------------|-
-|--0-0----0-0----0-0----0-0----0-0----0-0----0-0----0-0--------------------|-
-|--0-0----0-0----0-0----0-0----0-0----0-0----0-0----0-0--------------------|-
  pm. .    . .    . .    . .    . .    . .    . .    . .                      

-|--------------------------------------------------------------------------|-
-|--------------------------------------------------------------------------|-
-|--------------------------------------------------------------------------|-
-|--0-5-6-0-7-0----0-5-6-0-7-0----0-5-6-0-7-0----0-5-6-0-7-0----------------|-
-|--0-5-6-0-7-0----0-5-6-0-7-0----0-5-6-0-7-0----0-5-6-0-7-0----------------|-
-|--0-5-6-0-7-0----0-5-6-0-7-0----0-5-6-0-7-0----0-5-6-0-7-0----------------|-
    . . . .        . . . .        . . . .        . . . .                      

-|--------------------------------------------------------------------------|-
-|--------------------------------------------------------------------------|-
-|--------------------------------------------------------------------------|-
-|--7-7-7-7-7-7-7-7-6-6-6-6-6-6-6-6-5-5-5-5-5-5-5-5-6-6-6-6-6-6-6-6---------|-
-|--7-7-7-7-7-7-7-7-6-6-6-6-6-6-6-6-5-5-5-5-5-5-5-5-6-6-6-6-6-6-6-6---------|-
-|--7-7-7-7-7-7-7-7-6-6-6-6-6-6-6-6-5-5-5-5-5-5-5-5-6-6-6-6-6-6-6-6---------|-
  Chorus                                                                      

-|------------------------------------|-------------------------------------|-
-|------------------------------------|-------------------------------------|-
-|------------------------------------|-------------------------------------|-
-|------------------------------------|-------------------------------------|-
-|--0-1-2----0-1-2----0-1-2----0-1-2--|-------------------------------------|-
-|--0-1-2----0-1-2----0-1-2----0-1-2--|-------------------------------------|-
                                                                              

-|--------------------------------|-----------------------------------------|-
-|--------------------------------|-----------------------------------------|-
-|--------------------------------|-----------------------------------------|-
-|--0-0-3-0-3-3-0-3--3-0-3h5-5-0--|-----------------------------------------|-
-|--0-0-3-0-3-3-0-3--3-0-3h5-5-0--|-----------------------------------------|-
-|--0-0-3-0-3-3-0-3--3-0-3h5-5-0--|-----------------------------------------|-
    . .   .     .      .     .                                                

-|--------------------------------------------------------------------------|-
-|--------------------------------------------------------------------------|-
-|--------------------------------------------------------------------------|-
-|--0-5-6-0-7-0----0-5-6-0-7-0----0-5-6-0-7-0----0-5-6-0-7-0----------------|-
-|--0-5-6-0-7-0----0-5-6-0-7-0----0-5-6-0-7-0----0-5-6-0-7-0----------------|-
-|--0-5-6-0-7-0----0-5-6-0-7-0----0-5-6-0-7-0----0-5-6-0-7-0----------------|-
    . . . .        . . . .        . . . .        . . . .                      

-|--------------------------------------------------------------------------|-
-|--------------------------------------------------------------------------|-
-|--------------------------------------------------------------------------|-
-|--7-7-7-7-7-7-7-7-6-6-6-6-6-6-6-6-5-5-5-5-5-5-5-5-6-6-6-6-6-6-6-6---------|-
-|--7-7-7-7-7-7-7-7-6-6-6-6-6-6-6-6-5-5-5-5-5-5-5-5-6-6-6-6-6-6-6-6---------|-
-|--7-7-7-7-7-7-7-7-6-6-6-6-6-6-6-6-5-5-5-5-5-5-5-5-6-6-6-6-6-6-6-6---------|-
  Chorus                                                                      

-|------------------------------------|-------------------------------------|-
-|------------------------------------|-------------------------------------|-
-|------------------------------------|-------------------------------------|-
-|--0-1-2----0-1-2----0-1-2----0-1-2--|-------------------------------------|-
-|--0-1-2----0-1-2----0-1-2----0-1-2--|-------------------------------------|-
-|--0-1-2----0-1-2----0-1-2----0-1-2--|-------------------------------------|-
                                                                              

-|--------------------------------|-----------------------------------------|-
-|--------------------------------|-----------------------------------------|-
-|--------------------------------|-----------------------------------------|-
-|--0-0-3-0-3-3-0-3--3-0-3h5-5-0--|-----------------------------------------|-
-|--0-0-3-0-3-3-0-3--3-0-3h5-5-0--|-----------------------------------------|-
-|--0-0-3-0-3-3-0-3--3-0-3h5-5-0--|-----------------------------------------|-
    . .   .     .      .     .                                                

-|--------------------------------------------------------------------------|-
-|--------------------------------------------------------------------------|-
-|--------------------------------------------------------------------------|-
-|--0-0----0-0----0-0----0-0----0-0----0-0----0-0----0-0--------------------|-
-|--0-0----0-0----0-0----0-0----0-0----0-0----0-0----0-0--------------------|-
-|--0-0----0-0----0-0----0-0----0-0----0-0----0-0----0-0--------------------|-
    . .    . .    . .    . .    . .    . .    . .    . .                      

-|--------------------------------------------------------------------------|-
-|--------------------------------------------------------------------------|-
-|--------------------------------------------------------------------------|-
-|--------------------------------------------------------------------------|-
-|--------------------------------------------------------------------------|-
-|--0-0-3-0-3-0-3-3-0-3-0-3-0-3-3-0-3-0-3-0-3-3-0-3-0-3-0-3-3---------------|-
    . . . . . . . . . . . . . . . . . . . . . . . . . . . . .                 

-|---------------------------------------|----------------------------------|-
-|---------------------------------------|----------------------------------|-
-|---------------------------------------|----------------------------------|-
-|---------------------------------------|----------------------------------|-
-|---------------------------------------|----------------------------------|-
-|--0-0-12-0-12-12-0-12-12-0-12-0-12h15--|----------------------------------|-
                                                                              

-|---------------------------------------------------|----------------------|-
-|---------------------------------------------------|----------------------|-
-|---------------------------------------------------|----------------------|-
-|--7----3--3h5-x--3--3h5-x--0-0---------------------|----------------------|-
-|--7----3--3h5-x--3--3h5-x--0-0----12-0-12-0-12h15--|----------------------|-
-|--7----3--3h5-x--3--3h5-x--0-0----12-0-12-0-12h15--|----------------------|-
                                                                              

-|------------------------------------------------------|-------------------|-
-|------------------------------------------------------|-------------------|-
-|------------------------------------------------------|-------------------|-
-|--3-x-3-3h5-0--3-x-3-3h5-0--3-x-3-3h5-0--3-x-3-3h5-0--|-------------------|-
-|--3-x-3-3h5-0--3-x-3-3h5-0--3-x-3-3h5-0--3-x-3-3h5-0--|-------------------|-
-|--3-x-3-3h5-0--3-x-3-3h5-0--3-x-3-3h5-0--3-x-3-3h5-0--|-------------------|-
                                                                              

-|--------------------------------------------------------------------------|-
-|--------------------------------------------------------------------------|-
-|--------------------------------------------------------------------------|-
-|--------------------------------------------------------------------------|-
-|--------3--5-------------3--5-------------3--5-------------3--5-----------|-
-|--0h3h5------0-0-0-0h3h5------0-0-0-0h3h5------0-0-0-0h3h5------0-0-0-----|-
  Ending       . . .            . . .            . . .            . . .       

-|--------------------------------------------------------------------------|-
-|--------------------------------------------------------------------------|-
-|--5-5-5----------5-5-5----------------------------------------------------|-
-|--3-3-3----------3-3-3----------------------------------------------------|-
-|--3-3-3--5-------3-3-3--5-------------------------------------------------|-
-|-----------0-0-0----------0-0-0-------------------------------------------|-


All Within My Hands
Drop C Tuning 

D |--------------------------------------------------------------------------|
A |--------------------------------------------------------------------------|
F |--------------------------------------------------------------------------|
C |-7-7-0-0-6-6-0-0-5-5-3--7-7-0-0-6-6-0-0-5-5-3-----------------------------|
G |-7-7-0-0-6-6-0-0-5-5-3--7-7-0-0-6-6-0-0-5-5-3-----------------------------|
C |-7-7-0-0-6-6-0-0-5-5-3--7-7-0-0-6-6-0-0-5-5-3-----------------------------|

D |--------------------------------------------------------------------------|
A |--------------------------------------------------------------------------|
F |--------------------------------------------------------------------------|
C |-7-7-0-0-6-6-0-0--7-7-0-0-6-6-0-0--7-7-0-0-6-6-0-0--7-7-0-0-6-6-0-0-------|
G |-7-7-0-0-6-6-0-0--7-7-0-0-6-6-0-0--7-7-0-0-6-6-0-0--7-7-0-0-6-6-0-0-------|
C |-7-7-0-0-6-6-0-0--7-7-0-0-6-6-0-0--7-7-0-0-6-6-0-0--7-7-0-0-6-6-0-0-------|

D |--------------------------------------------------------------------------|
A |--------------------------------------------------------------------------|
F |--------------------------------------------------------------------------|
C |-7-7-0-0-6-6-0-0-xxxx-7-7-0-0-6-6-0-0-xxx---------------------------------|
G |-7-7-0-0-6-6-0-0-xxxx-7-7-0-0-6-6-0-0-xxx---------------------------------|
C |-7-7-0-0-6-6-0-0-xxxx-7-7-0-0-6-6-0-0-xxx---------------------------------|

D |--------------------------------------------------------------------------|
A |--------------------------------------------------------------------------|
F |--------------------------------------------------------------------------|
C |-7-7-0-0-6-6-0-0-5-7-7-0-0-6-6-0-0--7-7-0-0-6-6-0-0-3-7-7-0-0-6-6-0-0-----|
G |-7-7-0-0-6-6-0-0-5-7-7-0-0-6-6-0-0--7-7-0-0-6-6-0-0-3-7-7-0-0-6-6-0-0-----|
C |-7-7-0-0-6-6-0-0---7-7-0-0-6-6-0-0--7-7-0-0-6-6-0-0---7-7-0-0-6-6-0-0-----|

D |--------------------------------------------------------------------------|
A |--------------------------------------------------------------------------|
F |--------------------------------------------------------------------------|
C |-7-7-0-0-6-6-0-0--7-7-0-0-6-6-0-0--7-7-0-0-6-6-0-0--3----7-7-0-0-6-6-0-0--|
G |-7-7-0-0-6-6-0-0--7-7-0-0-6-6-0-0--7-7-0-0-6-6-0-0--3----7-7-0-0-6-6-0-0--|
C |-7-7-0-0-6-6-0-0--7-7-0-0-6-6-0-0--7-7-0-0-6-6-0-0--3----7-7-0-0-6-6-0-0--|

D |-8-8-8-8-8-8-5b-5-5-5-3-3-3-3-3-3-3-3-3\1-1-1-1-1-1-----------------------|
A |--------------------------------------------------------------------------|
F |--------------------------------------------------------------------------|
C |--------------------------------------------------------------------------|
G |--------------------------------------------------------------------------|
C |--------------------------------------------------------------------------|

Not sure about this one:
D |--------------------------------------------------------------------------|
A |--------------------------------------------------------------------------|
F |--------------------------------------------------------------------------|
C |--------------------------------------------------------------------------|
G |--------------------------------------------------------------------------|
C |-3-5-3-5-3-5-3-5-0-1-0-1-0-1-0-1-3-5-3-5-3-5-3-5-0-1-0-1-0-1-0-1----------|

D |-----5-------5-------6-------6-------6-------6--------5-------------------|
A |---6---6---6---6---5---5---5---5---8---8---8----8---6---6-6p5---6p5-------|
F |-7-------7-------7-------7-------7-------7--------7-----------7-----7-5-7-|
C |--------------------------------------------------------------------------|
G |--------------------------------------------------------------------------|
C |--------------------------------------------------------------------------|

D |--------------------------------------------------------------------------|
A |--------------------------------------------------------------------------|
F |--------------------------------------------------------------------------|
C |-5/7-7-7-7-7-7-7-7-7\5-5-5-5-5-5-5-5-5/8-8-8-8-8-8-8-8-8\7-7-7-7-7-7-7-7--|
G |-5/7-7-7-7-7-7-7-7-7\5-5-5-5-5-5-5-5-5/8-8-8-8-8-8-8-8-8\7-7-7-7-7-7-7-7--|
C |-5/7-7-7-7-7-7-7-7-7\5-5-5-5-5-5-5-5-5/8-8-8-8-8-8-8-8-8\7-7-7-7-7-7-7-7--|

D |--------------------------------------------------------------------------|
A |--------------------------------------------------------------------------|
F |--------------------------------------------------------------------------|
C |-5/7-7-7-7-7-7-7-7-7\5-5-5-5-5-5-5-5-5/8-8-8-8-8-8-8-8-7-5-8-7-5----------|
G |-5/7-7-7-7-7-7-7-7-7\5-5-5-5-5-5-5-5-5/8-8-8-8-8-8-8-8-7-5-8-7-5----------|
C |-5/7-7-7-7-7-7-7-7-7\5-5-5-5-5-5-5-5-5/8-8-8-8-8-8-8-8-7-5-8-7-5----------|

D |--------------------------------------------------------------------------|
A |--------------------------------------------------------------------------|
F |--------------------------------------------------------------------------|
C |-5-6-7-0-5-6-7-0-5-6-7-0-5-3-0--5-6-7-0-5-6-7-0-5-6-7-0-5-3-0-------------|
G |-5-6-7-0-5-6-7-0-5-6-7-0-5-3-0--5-6-7-0-5-6-7-0-5-6-7-0-5-3-0-------------|
C |-5-6-7-0-5-6-7-0-5-6-7-0-5-3-0--5-6-7-0-5-6-7-0-5-6-7-0-5-3-0-------------|

D |--------------------------------------------------------------------------|
A |--------------------------------------------------------------------------|
F |--------------------------------------------------------------------------|
C |-5-6-7-0--5-6-3—-5/6\5-3-5-5/6\5--5-6-7-0--5-6-3—-5/6\5-3-5-5/6\5---------|
G |-5-6-7-0--5-6-3—-5/6\5-3-5-5/6\5--5-6-7-0--5-6-3—-5/6\5-3-5-5/6\5---------|
C |-5-6-7-0--5-6-3—-5/6\5-3-5-5/6\5--5-6-7-0--5-6-3—-5/6\5-3-5-5/6\5---------|
 
D |--------------------------------------------------------------------------|
A |--------------------------------------------------------------------------|
F |-----------------------2-0-----------------------2-0----------------------|
C |-7-7-0-0-6-6-0-0-5-5-3-----7-7-0-0-6-6-0-0-5-5-3--------------------------|
G |-7-7-0-0-6-6-0-0-5-5-3-----7-7-0-0-6-6-0-0-5-5-3--------------------------|
C |-7-7-0-0-6-6-0-0-5-5-3-----7-7-0-0-6-6-0-0-5-5-3--------------------------|

D |-----10-10-10-10----------------------------------------------------------|
A |---------------------10-10-10-10------------------------------------------|
F |--------------------------------------------------------------------------|
C |-0-0-------------0-0-------------0-0--------------------------------------|
G |-0-0-------------0-0-------------0-0--------------------------------------|
C |-0-0-------------0-0-------------0-0--------------------------------------|

D |--------------------------------------------------------------------------|
A |--------------------------------------------------------------------------|
F |--------------------------------------------------------------------------|
C |-7-7-0-0-6-6-0-0-5--7-7-0-0-6-6-0-0----7-7-0-0-6-6-0-0----7-7-0-0-6-6-0-0-|
G |-7-7-0-0-6-6-0-0----7-7-0-0-6-6-0-0----7-7-0-0-6-6-0-0----7-7-0-0-6-6-0-0-|
C |-7-7-0-0-6-6-0-0----7-7-0-0-6-6-0-0----7-7-0-0-6-6-0-0----7-7-0-0-6-6-0-0-|

D |--------------------------------------------------------------------------|
A |--------------------------------------------------------------------------|
F |--------------------------------------------------------------------------|
C |--------------------------------------------------------------------------|
G |--------------------------------------------------------------------------|
C |-5/7-00-00-00-0-3/5-7\5-3--5/7-00-00-00-0-3/5-7\5-3-----------------------|

D |--------------------------------------------------------------------------|
A |--------------------------------------------------------------------------|
F |--------------------------------------------------------------------------|
C |-5-5/6\5-3-7-0-0-0-0-0-0-5-5/6\5-3-7-0-0-0-0-0-0--------------------------|
G |-5-5/6\5-3-7-0-0-0-0-0-0-5-5/6\5-3-7-0-0-0-0-0-0--------------------------|
C |-5-5/6\5-3-7-0-0-0-0-0-0-5-5/6\5-3-7-0-0-0-0-0-0--------------------------|

D |--------------------------------------------------------------------------|
A |--------------------------------------------------------------------------|
F |--------------------------------------------------------------------------|
C |-5-6-7-0-5-6-7-0-5-6-3-3-3-3-3--5-6-7-0-5-6-7-0-5-6-3-3-3-3-3-------------|
G |-5-6-7-0-5-6-7-0-5-6-3-3-3-3-3--5-6-7-0-5-6-7-0-5-6-3-3-3-3-3-------------|
C |-5-6-7-0-5-6-7-0-5-6-3-3-3-3-3--5-6-7-0-5-6-7-0-5-6-3-3-3-3-3-------------|

D |--------------------------------------------------------------------------|
A |--------------------------------------------------------------------------|
F |--------------------------------------------------------------------------|
C |-5-5/6\5-3-5-7-0-0-0-5-5/6\5-3-5-7-0-0-0----------------------------------|
G |-5-5/6\5-3-5-7-0-0-0-5-5/6\5-3-5-7-0-0-0----------------------------------|
C |-5-5/6\5-3-5-7-0-0-0-5-5/6\5-3-5-7-0-0-0----------------------------------|

D |--------------------------------------------------------------------------|
A |--------------------------------------------------------------------------|
F |--------------------------------------------------------------------------|
C |-5-6-7-0-5-6-7-0-5-6-0-0-0-0-0-0-5-6-7-0-5-6-7-0-5-6-0-0-0-0-0-0----------|
G |-5-6-7-0-5-6-7-0-5-6-0-0-0-0-0-0-5-6-7-0-5-6-7-0-5-6-0-0-0-0-0-0----------|
C |-5-6-7-0-5-6-7-0-5-6-0-0-0-0-0-0-5-6-7-0-5-6-7-0-5-6-0-0-0-0-0-0----------|

D |--------------------------------------------------------------------------|
A |--------------------------------------------------------------------------|
F |--------------------------------------------------------------------------|
C |-5-6-7-0-5-6-7-0-5-6-7-7-7-7-7-7------------------------------------------|
G |-5-6-7-0-5-6-7-0-5-6-7-7-7-7-7-7------------------------------------------|
C |-5-6-7-0-5-6-7-0-5-6-7-7-7-7-7-7------------------------------------------|

D |-------|
A |-------|
F |-------|
C |-7-6-3-|
G |-7-6-3-|
C |-7-6-3-|

D |------------------------------------|
A |-8brbrbrbrbrbrbrbrbrbrbrbr--6-8/9---|
F |----------------------------5-7/8---|
C |----------------------------3-6/7---|
G |------------------------------------|
C |------------------------------------|


Thats all of ST. ANGER!!!!!!!!
Rate this
comments
print report bad tab
17 comments total. Showing first comments.
0 reply
hazz7625 wrote on October 4 2004, 12:00 am

wierd!?!?!?!

-2 reply
warlockmaster21 wrote on June 28 2005, 12:00 am

1980 metallica rocks. this modern sh!t metallica has morphed to sucks. master of puppets all the way! btw wtf is a bon jovi frick doing here?????????????????????????????????????????????

-2 reply
MCRrocks wrote on October 11 2005, 01:29 pm

man, you ****ing gay bastard jockus, you put that goddamn tab everywhere you dick i hope you choke and die.

I want to post or [tab]
guest
You may want to rate the tab now too:
select rating
Please do not post tabs as comments. Select "correction" instead!