Oops, an error
Loading. Please wait.

St Anger Bass Tab

ver2
ver2

Album

Whole song

More versions @911Tabs.com
5,753 views 12 this week
no commentswrite comment
1 2 3 4 5
accurate
x 7
Autoscroll
+/-
esc
set tempo
stop
Contributor
Difficulty
novice
WARNING: You are trying to view
                                    content from Ultimate-Guitar.com
                                    in an unauthorized application,
                                    which is prohibited.

                                    Please use an official Ultimate
                                    Guitar Tabs application for iPhone,
                                    iPad or Android to access legitimate
                                    chords, guitar, bass, and drum tabs
                                    from Ultimate-Guitar.com database.

                                    Type "ultimate guitar tabs" in Apple
                                    App Store's or Android Market's
                                    search to find the application.
Frantic
St.Anger
Some Kind Of Monster
Dirty Window
Invisible Kid
My World
Shoot Me Again
Sweet Amber

Frantic

Intro 1                                      x4

G|----------------------------------------|
D|----------------------------------------|
A|---------------5------------------5-----|
E|-0-0-0-0-0-0-0------0-0-0-0-0-0-0-------|


Intro 2                                      x3

G|----------------------------------------|
D|----------------------------------------|
A|----------------------------------------|
E|-6-3-0-0-0-0-5-0-0-0-0-0-6-3-0-0-0-0-5--|


Faster                                       x2

G|-----------------------------------------|
D|-----------------------------------------|
A|-----------------------------------------|
E|-63-0000-5-63-0000-5-63-0000-5-63-0000-5-|


Pre-Pre Verse                              x3

G|--------------------------------------|
D|--------------------------------------|
A|-12-10-0-11-11-11---12-10-0-11-11-11--|
E|--------------------------------------|

G|--------------------------------------|
D|--------------------------------------|
A|-12-10-0-11-11-11--12-10-0-0-0-0-0-0--|
E|--------------------------------------|


Pre Verse                                   x2

G|---------------------------------------------------|
D|---------------------------------------------------|
A|---------------------------------------------------|
E|-63-0-5-5-5--63-0-5-5-5--63-0-5-5-5--63-0000000----|


Verse                                       x2

G|------------------------------------------------|
D|------------------------------------------------|
A|------------------------------------------------|
E|--6-0-0-0-0-0-3-0-0-0-0-0-6-0-0-0-0-0-3-0-0-0-0-|
Mid-Verse
G|-------------------------------------|
D|-------------------------------------|
A|-------------------------------------|
E|-5555555-6666666-5555555-6666666-----|


Verse x1

After Verse                         x3

G|--------------------------------------|
D|--------------------------------------|
A|-12-10-0-11-11-11---12-10-0-11-11-11--|
E|--------------------------------------|


Chorus

G|----------------------------------------------------|
D|----------------------------------------------------|
A|----------------------------------------------------|
E|-0-0-0-0-0-0--0-0-0-0-0-0--0-0-0-0-0-0--0-0-0-0-0-0-|


After Chorus             x16

G|---------------------|
D|---------------------|
A|--------3--3---------|
E|--4--2--------4------|


Frantic Tic Tic Tic Tic Toc            x4

G|----------------------------------------|
D|----------------------------------------|
A|----------------------------------------|
E|-6-3-0-0-0-0-5-0-0-0-0-0-6-3-0-0-0-0-5--|


Break

G|----------------------------------------|
D|----------------------------------------|
A|----------------------------------------|
E|--00---00---00---00---00---00---00---00-|

Ending                     x3

G|-----------------------------------------|
D|-----------------------------------------|
A|-----------------------------------------|
E|-63-5555-63-5555-63-5555-63-5555-63-5555-|

St.Anger

Intro:

F------------------------------|
C------------------------------|
G------------------------------|
C--1-1-----1-1------1-1----1-1-|

F-----------------------|
C-----------------------|
G------------------1-1--|
C-1-0-0-1-0-0-1-0-3---0-|

F----------------|----------------|
C----------------|----------------|
G----------------|----------1-1---|       Repeat 8X
C0-1-3-0-1-0-0-1|-0-0-1-0-3----0--|

F----------------|----------------|--------------------|
C----------------|----------------|--------------------|
G----------------|----------------|--------------------|
C-0-3-1-0-3-1-0-3|-1-0-3-1-0-3-1-0|-0-0-0-0-0/10-10-10-|

verse:

(Slower tempo)
F----------------|-------------------------------|
C----------------|-------------------------------|
G----------------|------------------     Repeat--| 8X
C-0-0-0-0-3-1-0-0|0-0-0-0-0/10-10-10-------------|

Chorus:

(tremolo Picking )
F----------------------------------------------------------------------------------|
C------------------------------------------------------------------------  Repeat--| 4X
G----------------------------------------------------------------------------------|
C-0-0-0-0-0-0-0-0-0-0-0-0-0-0-0-0-10-10-10-10-10-10-10-10-8-8-8-8-7-7-7-7----------|

F-------------------------------------------------------------------|
C-------------------------------------------------------------------|
G-------------------------------------------------------------------|
C--0---------0--0---0-0--------10-10-10-10-10-10-10-8-8-8-8-7-7-7-7-|


F----------------------------------------------------------------------|
C----------------------------------------------------------------------|
G----------------------------------------------------------------------|
c-0-0-0-0-0-0-0-0-0-0-0-0-0-0-0-0-10-10-10-10-10-10-10-8-8-8-8-7-7-7-7-|

Some kind of monster

F|--------------------------|
C|--------------------------|
G|--------------------------|
C|--0---0-0--3--5--0--x--0--|

|--------------------------|--------------------------|
|--------------------------|--------------------------|
|--------------------------|--------------------------|
|--3--5--0--3--5--0--3--5--|--0---0-0--3--5--0--x--0--|

|--------------------------|--------------------------|
|--------------------------|--------------------------|
|--------------------------|--------------------------|
|--3--5--0--3--5--0--3--5--|--0---0-0--3--5--0--x--0--|

|--------------------------|--------------------------|
|--------------------------|--------------------------|
|--------------------------|--------------------------|
|--3--5--0--3--5--0--3--5--|--0---0-0--3--5--0--x--0--|

|--------------------------|-----------------------|--------|
|--------------------------|-----------------------|--------|
|--------------------------|-----------------------|--------|
|--3--5--0--3--5--0--3--5--|--3-3-3------5--0------|--------|

|-----------------------|-------|-----------------------|
|-----------------------|-------|-----------------------|
|-----------------------|-------|-----------------------|
|--3-3-3------5--0------|-------|--3-3-3------5--0------|

|-------|---------------------|-------|
|-------|---------------------|-------|
|-------|---------------------|-------|
|-------|--3--------5--0------|-------|

|---------------------|-------|---------------------|
|---------------------|-------|---------------------|
|---------------------|-------|---------------------|
|--3--------5--0------|-------|--3--------5--0------|

|--------|-------------|
|--------|-------------|
|--------|-------------|
|--------|--3-3-3------|

|-----------------------------------|
|-----------------------------------|     X4
|-----------------------------------|
|--0-0-0-0-0-0-0-0-0--3--5--0----0--|

|-----------------------|--------|
|-----------------------|--------|
|-----------------------|--------|
|--3-3-3------5--0------|--------|

|---------------------|----------|
|---------------------|----------| X3
|---------------------|----------|
|--3--------5--0------|----------|

|-----------------------|---------|-----------------------|
|-----------------------|---------|-----------------------|
|-----------------------|---------|-----------------------|
|--3-3-3------5--0------|---------|--3-3-3------5--0------|

|-------|-------------|-----------------------------------|
|-------|-------------|-----------------------------------|
|-------|-------------|-----------------------------------|
|-------|--3-3-3------|--0-0-0-0-0-0-0-0-0--3--5--0----0--|

|------------------------------------|-----------------------------------|
|------------------------------------|-----------------------------------|
|------------------------------------|-----------------------------------|
|--3-3-3-3-5--0--3--5-5-5-5-0--3--5--|--0-0-0-0-0-0-0-0-0--3--5--0----0--|

|------------------------------------|
|------------------------------------|
|------------------------------------|
|--3-3-3-3-5--0--3--5-5-5-5-0--3--5--|


            Verse
|------------------------------|
|------------------------------| X 15
|------------------------------|
|--0---0-10/12-0---12--12-0----|

                           Interlude
|---------------------|-----------------------|----------------------|
|---------------------|-----------------------|----------------------|
|---------------------|-------5---------------|----------------------|
|--0--------0------0--|--0-------0--0------0--|--0------0--0------0--|

|-----------------------|----------------------|
|-----------------------|----------------------|
|-------5---------------|----------------------|
|--0-------0--0------0--|--0------0--0------0--|

|------------------------------|
|------------------------------|   X9
|------------------------------|
|--0---0-10/12-0---12--12-0----|

                  Pre-Chorus
|---------------------|----------------------|
|---------------------|----------------------|  X2
|---------------------|----------------------|
|--0------0------0----|--0------0--1----2----|

|----|------------------------|----------------------|
|----|------------------------|----------------------|
|----|------------------------|----------------------|
|----|----------5-3-5-0-0--5--|--5-3-5-0-------------|

|------------------------|---------------------------|
|------------------------|---------------------------|
|------------------------|---------------------------|
|----------5-3-5-0-0--5--|--5-3-5-0-----5-3-5-0-0----|

|-----------------------------|----------------------------|
|-----------------------------|----------------------------|
|-----------------------------|----------------------------|
|--5-3-5-0-0----5-3-5-0-0--5--|--5-3-5-0-0----5-3-5-0-0----|

|-----------------------------|
|-----------------------------|
|-----------------------------|
|--5-3-5-0-0----5-3-5-0-0--5--|

|---------------------|----------------------|
|---------------------|----------------------| X2
|---------------------|----------------------|
|--0------0------0----|--0------0--1----2----|

               Chorus
|--------------------------|
|--------------------------|
|--------------------------|
|--0---0-0--3--5--0--x--0--|

|--------------------------|--------------------------|
|--------------------------|--------------------------|
|--------------------------|--------------------------|
|--3--5--0--3--5--0--3--5--|--0---0-0--3--5--0--x--0--|

|--------------------------|--------------------------|
|--------------------------|--------------------------|
|--------------------------|--------------------------|
|--3--5--0--3--5--0--3--5--|--0---0-0--3--5--0--x--0--|

|--------------------------|--------------------------|
|--------------------------|--------------------------|
|--------------------------|--------------------------|
|--3--5--0--3--5--0--3--5--|--0---0-0--3--5--0--x--0--|

|--------------------------|
|--------------------------|
|--------------------------|
|--3--5--0--3--5--0--3--5--|

                               Interlude
|-----------------------------------|
|-----------------------------------|
|-----------------------------------|
|--0-0-0-0-0-0-0-0-0--3--5--0----0--|


|------------------------------------|-----------------------------------|
|------------------------------------|-----------------------------------|
|------------------------------------|-----------------------------------|
|--3-3-3-3-5--0--3--5-5-5-5-0--3--5--|--0-0-0-0-0-0-0-0-0--3--5--0----0--|

|------------------------------------|
|------------------------------------|
|------------------------------------|
|--3-3-3-3-5--0--3--5-5-5-5-0--3--5--|

             Verse
|------------------------------|
|------------------------------| X15
|------------------------------|
|--0---0-10/12-0---12--12-0----|

                              Interlude
|---------------------|-----------------------|----------------------|
|---------------------|-----------------------|----------------------|
|---------------------|-------5---------------|----------------------|
|--0--------0------0--|--0-------0--0------0--|--0------0--0------0--|

|-----------------------|----------------------|
|-----------------------|----------------------|
|-------5---------------|----------------------|
|--0-------0--0------0--|--0------0--0------0--|

|------------------------------|
|------------------------------|       X9
|------------------------------|
|--0---0-10/12-0---12--12-0----|

              Pre-Chorus
|---------------------|----------------------|
|---------------------|----------------------|  X2
|---------------------|----------------------|
|--0------0------0----|--0------0--1----2----|

|----|------------------------|----------------------|
|----|------------------------|----------------------|
|----|------------------------|----------------------|
|----|----------5-3-5-0-0--5--|--5-3-5-0-------------|

|------------------------|---------------------------|
|------------------------|---------------------------|
|------------------------|---------------------------|
|----------5-3-5-0-0--5--|--5-3-5-0-----5-3-5-0-0----|

|-----------------------------|----------------------------|
|-----------------------------|----------------------------|
|-----------------------------|----------------------------|
|--5-3-5-0-0----5-3-5-0-0--5--|--5-3-5-0-0----5-3-5-0-0----|

|-----------------------------|
|-----------------------------|
|-----------------------------|
|--5-3-5-0-0----5-3-5-0-0--5--|

|---------------------|----------------------|
|---------------------|----------------------|   X2
|---------------------|----------------------|
|--0------0------0----|--0------0--1----2----|

          Chorus
|--------------------------|
|--------------------------|
|--------------------------|
|--0---0-0--3--5--0--x--0--|

|--------------------------|--------------------------|
|--------------------------|--------------------------|
|--------------------------|--------------------------|
|--3--5--0--3--5--0--3--5--|--0---0-0--3--5--0--x--0--|

|--------------------------|--------------------------|
|--------------------------|--------------------------|
|--------------------------|--------------------------|
|--3--5--0--3--5--0--3--5--|--0---0-0--3--5--0--x--0--|

|--------------------------|--------------------------|
|--------------------------|--------------------------|
|--------------------------|--------------------------|
|--3--5--0--3--5--0--3--5--|--0---0-0--3--5--0--x--0--|

|--------------------------|
|--------------------------|
|--------------------------|
|--3--5--0--3--5--0--3--5--|

                               Interlude
|-----------------------------------|
|-----------------------------------|
|-----------------------------------|
|--0-0-0-0-0-0-0-0-0--3--5--0----0--|

|------------------------------------|-----------------------------------|
|------------------------------------|-----------------------------------|
|------------------------------------|-----------------------------------|
|--3-3-3-3-5--0--3--5-5-5-5-0--3--5--|--0-0-0-0-0-0-0-0-0--3--5--0----0--|

|------------------------------------|------------------------------|
|------------------------------------|------------------------------|
|------------------------------------|------------------------------|
|--3-3-3-3-5--0--3--5-5-5-5-0--3--5--|--0---0-10/12-0---12--12-0----|

                        Bridge
|--------------------------|----------------------------|
|--------------------------|----------------------------|        X6
|--------------------------|----------------------------|
|--0---0-5/-3--0-0-0--1----|--0---0-5/-3--0-0-0--1-1-1--|

|------------------------|
|------------------------|     X3
|------------------------|
|--0--3--3--0--3--3------|

|---------------------------|----|----|----|----|
|---------------------------|----|----|----|----|
|---------------------------|----|----|----|----|
|--0--3--3--0--3--3--3/5/3--|----|----|----|----|

|----------------------|
|----------------------|   X4
|----------------------|
|--0------0--0------0--|

|------------------------|
|------------------------|    X3
|------------------------|
|--0--3--3--0--3--3------|

|---------------------------|
|---------------------------|
|---------------------------|
|--0--3--3--0--3--3--3/5/3--|

|----------------------|
|----------------------|     X4
|----------------------|
|--0------0--0------0--|

               Interlude
|--------------------------|----------------------------|
|--------------------------|----------------------------|   X2
|--------------------------|----------------------------|
|--0---0-5/-3--0-0-0--1----|--0---0-5/-3--0-0-0--1-1-1--|

|----------------|---------------|---------------|
|----------------|---------------|---------------|
|----------------|---------------|---------------|
|--0-0-0--1-1-1--|--5-3-5-0-0----|--5-3-5-0-0----|

|----------------|----------------|----------------------------|
|----------------|----------------|----------------------------|
|----------------|----------------|----------------------------|
|--0-0-0--1-1-1--|--0-0-0--1-1-1--|--5-3-5-0-0----5-3-5-0-0----|

|-----------------------------|----------------------------|---|
|-----------------------------|----------------------------|---|
|-----------------------------|----------------------------|---|
|--5-3-5-0-0----5-3-5-0-0--5--|--5-3-5-0-0----5-3-5-0-0----|---|

                       Chorus
|--------------------------|--------------------------|
|--------------------------|--------------------------|
|--------------------------|--------------------------|
|--0---0-0--3--5--0--x--0--|--3--5--0--3--5--0--3--5--|

|--------------------------|--------------------------|
|--------------------------|--------------------------|
|--------------------------|--------------------------|
|--0---0-0--3--5--0--x--0--|--3--5--0--3--5--0--3-----|

|--------------------------|--------------------------|
|--------------------------|--------------------------|
|--------------------------|--------------------------|
|--0---0-0--3--5--0--x--0--|--3--5--0--3--5--0--3--5--|

|--------------------------|--------------------------|
|--------------------------|--------------------------|
|--------------------------|--------------------------|
|--0---0-0--3--5--0--x--0--|--3--5--0--3--5--0--3--5--|

                                    Outro
|-----------------------------------|------------------------------------|
|-----------------------------------|------------------------------------|
|-----------------------------------|------------------------------------|
|--0-0-0-0-0-0-0-0-0--3--5--0----0--|--3-3-3-3-5--0--3--5-5-5-5-0--3--5--|

|-----------------------------------|------------------------------------|
|-----------------------------------|------------------------------------|
|-----------------------------------|------------------------------------|
|--0-0-0-0-0-0-0-0-0--3--5--0----0--|--3-3-3-3-5--0--3--5-5-5-5-0--3--5--|

|------------------------------|------------------------------|----||
|------------------------------|------------------------------|----||
|------------------------------|------------------------------|----||
|--0---0-10/12-0---12--12-0----|--0---0-10/12-0---12--12-0----|----||
Dirty Window
F:--x-x-x-x-x--x-x--x-x--x---|
C:--x-x-x-x-x--x-x--x-x--x---|
G:--x-x-x-x-x--x-x--x-x--x---|  Repeat (X6)
C:--x-x-x-x-x--x-x--x-x--x---|

Played over with the guitar

|-----------|------------|----------|
|-----------|------------|----------|
|-----------|------------|----------|
|-----------|--0-------0-|-0------0-|

***VERSES***
|------------------------|                 |--------------------|
|------------------------|                 |--------------------|
|-------------------5----|     REPEAT (X4) |--------------------|
|-0-3-5-0-3-5-0-3-5---6-5|                 |---0--x-3-x-5--5-5-5|

|------------------------|
|------------------------| (X3)
|------------------5-----|
|-0-3-5-0-3-5-0-3-5--6-5-|

|--------------------------|         |--------------------|
|--------------------------|    (X4) |--------------------|
|--------------------------|         |--------------------|
|-0-3-5-x-x-x-x-x-0-3-5-6~-|         |--0-3-5-0-3-5-0-3-5-|

|--------------------------|
|--------------------------|
|--------------------5-----|   (X2)
|-0-3-5-0-3-5-0-3-5----6-5-|

|--------------------------|
|--------------------------|
|--------------------5-----|
|-0--3-5-0-3-5-0-3-5---6-5-|

|-------------------------------------------|
|-------------------------------------------|
|-----------------------------------5-------|
|-0-3-5-0----0-3-5-0-------0-3-5-0----6-5-0-|

Invisible Kid

Intro
F|------------------|
C|------------------|
G|------------------|
C|--3-0--0-0-0-0-0--|

F|------------|
C|------------|
G|------------|
C|--3-3-5-0---|

Lars Hits The Drums Twice Right Before Going Into The Verse
F|-------|
C|-------|
G|-------|
C|--3--3-|

Verse
F|--------------------------------------------------------|
C|--------------------------------------------------------|
G|--------------------------------------------------------|
C|--3-3-5-0--0-3-0-3-0-5-0--0-3-0-3-0-5-0--0-3-0-8-8-10-8-|

Little Interlude
F|---------------------------------------------------|
C|---------------------------------------------------|
G|---------------------------------------------------|
C|--4-0--3-4-5-4-0--3-4-5-4-0--3-4-5-4-0--3-4-5-4-0--|

Verse
F|--------------------------------------------------------|
C|--------------------------------------------------------|
G|--------------------------------------------------------|
C|--3-3-5-0--0-3-0-3-0-5-0--0-3-0-3-0-5-0--0-3-0-8-8-10-8-|

Little Interlude
F|---------------------------------------------------|
C|---------------------------------------------------|
G|---------------------------------------------------|
C|--4-0--3-4-5-4-0--3-4-5-4-0--3-4-5-4-0--3-4-5-4-0--|

The Part Where James Sings "Im OK just go away....."
F|-------------------------------------------------------------|
C|-------------------------------------------------------------|
G|-------------------------------------------------------2-3-3-|
C|--0-0-0-0-1-2-2--0-0-0-0-1-2-2--0-0-0-0-1-2-2--0-0-0-1-------|

Then
F|-----------------------------|
C|-----------------------------|
G|-----------------------------|
C|-0--0-1-2-3-5-0--0-1-2-3-5-0-|

Lars Hits The Drums Twice Right Before Going Into The Verse
F|-------|
C|-------|
G|-------|
C|--3--3-|

Verse
F|--------------------------------------------------------|
C|--------------------------------------------------------|
G|--------------------------------------------------------|
C|--3-3-5-0--0-3-0-3-0-5-0--0-3-0-3-0-5-0--0-3-0-8-8-10-8-|

Little Interlude
F|---------------------------------------------------|
C|---------------------------------------------------|
G|---------------------------------------------------|
C|--4-0--3-4-5-4-0--3-4-5-4-0--3-4-5-4-0--3-4-5-4-0--|

The Part Where James Sings "Im OK just go away....."
F|-------------------------------------------------------------|
C|-------------------------------------------------------------|
G|-------------------------------------------------------2-3-3-|
C|--0-0-0-0-1-2-2--0-0-0-0-1-2-2--0-0-0-0-1-2-2--0-0-0-1-------|

Then
F|-----------------------------|
C|-----------------------------|
G|-----------------------------|
C|-0--0-1-2-3-5-0--0-1-2-3-5-0-|

Then
F|------------|
C|------------|
G|------------|
C|--3-3-5-0---|

Then
F|-----------------------|
C|-----------------------|
G|-----------------------|
C|--7--5-7--5-7--5-8-8-8-|

Then
F|------------|
C|------------|
G|------------|
C|--3-3-5-0---|

Intro
F|------------------|
C|------------------|
G|------------------|
C|--3-0--0-0-0-0-0--|

F|------------|
C|------------|
G|------------|
C|--3-3-5-0---|

Guitar Solo

Verse
F|--------------------------------------------------------|
C|--------------------------------------------------------|
G|--------------------------------------------------------|
C|--3-3-5-0--0-3-0-3-0-5-0--0-3-0-3-0-5-0--0-3-0-8-8-10-8-|

The Part After That When James Sings "I hurt inside i hide inside but ill show you.."
F|-----------------------------|
C|-----------------------------|
G|-----------------------------|
C|-0--0-1-2-3-5-0--0-1-2-3-5-0-|

Then
F|-----------------------------|
C|-----------------------------|
G|-----------------------------|
C|-0--0-1-2-3-5-0--0-1-2-3-5-0-|

Then
F|-----------------------------|
C|-----------------------------|
G|-----------------------------|
C|-0--0-1-2-3-5-0--0-1-2-3-5-0-|

Then
F|-----------------------------------------|
C|-----------------------------------------|
G|-------------------------------------2-3-|
C|--1-0-1-1-1--1-0-1-1-1--1-0-1-1-1--1-----|

End Note
F|-----------------|
C|-----------------|
G|-----------------|
C|------1~~~~------|

My World

||-------------------|-------------------|| play x3
||-o-----------------|-----------------o-||
||-------------------|-------------------||
||-o-----------------|-----------------o-||
||---3-3-R-3-3-3-3-R-|-3-------5---------||
     e e e e e e e e   h       h

|--------------------|
|--------------------|
|--------------------|
|--------------------|
|---3-3-R-3-3-3-3-R--|
    e e e e e e e e

||-------------------|-------------------||
||-o-----------------|-----------------o-||    play 5 times
||-------------------|-----------3/------||
||-o—-0—-R----R------|---R-------------o-||
||-------------------|-------------------||
      q  q    h          h       h


||-------------------|------------------||
||-o-----------------|----------------o-||    play 4 times
||-------------------|---------0-3-5----||
||-o--0-R---0-R---0--|-R-0-R----------o-||
||-------------------|------------------||
      e q   e q   e    e e q   e e q

||-------------------|------------------|
||-o-----------------|------------------|
||-------------------|------------------|
||-o--0--R---R-------|----R-------------|
||-------------------|------------------|
      q  q   h            w

  >    >    >        >    >
|----------------|-----------------||
|----------------|---------------o-||
|----------------|-----------------||
|-0----3----5____|_5-3----0------o-||
|----------------|------------1----||
  q.  q.    q______e q.   q   q
            (tied note)

Bass Fig. 1
||--------------------|-----------------|
||-o------------------|-----------------|
||--------------------|-----------------|
||-o--0-0-0-0-0-0-0-0-|---------0-3-5---|
||--------------------|-0-0-0-0---------|
      e e e e e e e e   e e e e e e q

  >    >    >        >    >     End Bass Fig 1
|----------------|-----------------||
|----------------|---------------o-||
|----------------|-----------------||
|-0----3----5____|_5-3----0------o-||
|----------------|------------1----||
  q.  q.    q______e q.   q   q


|-----------------|----------------|-----------------|
|-----------------|----------------|-----------------|
|-----------------|----------------|-----------------|
|-----------------|----------------|-----------------|
|-3---3-3-3-1-----|-3---3-3-1------|-3---3-3-3-3-----|
  q   e e e q.      q   e e h       q   e e e q.

|-----------------|----------------|-----------------|
|-----------------|----------------|-----------------|
|-----------------|----------------|-----------------|
|-----------------|-3---3-3-3-2----|-3---3-3---------|
|-3---3-3-1-------|----------------|---------1-------|
  q   e e h        q   e e e q.      q   e e h

|-----------------|------------------|
|-----------------|------------------|
|-----------------|------------------|
|-3---3-3-3-2-----|-3---3-3-2/-------|
|-----------------|------------------|
  q   e e e q.      q   e e h

Verse
 w/ Bass Fig 1 – play 4 times

Chorus
Bass Fig. 2
|-----------------|------------------|
|-----------------|------------------|
|-----------------|------------------|
|-0----3----5-----|-5-5-5-5-5-5-5-5--|
|-----------------|------------------|
  q.   q.   q      e e e e e e e e

                                End Bass Fig. 2
|------------------|------------------|
|------------------|------------------|
|------------------|------------------|
|-5-5-5-5-5-5-5-5--|-5-5-5-5-5-5-5-5--|
|------------------|------------------|
  e e e e e e e e  e e e e e e e e

Fill
Bass Fig. 2 – play twice

Bass Fig. 3                  End Bass Fig. 3
|----------------|----------------|
|----------------|----------------|
|----------------|----------------|
|-6----3----0----|-----R----------|
|----------------|----------------|
  q.   q.   q          w

Bass Fig. 4               End Bass Fig. 4
|-----------------|---------|
|-----------------|---------|
|-----------------|---------|
|-3-0-R-0-R-0-3-0-|-5---6---|
|-----------------|---------|
  e e e e e e e e   q   q

Bass Fig. 4 – play 7 times

|-----2    /        |/7/--------------|
|-------------------|-----------------|
|-------------------|-----------------|
|-0-----------------|-----------------|
|-------------------|-----------------|
  q   h.              w

|-------------------|-----------------|
|-------------------|-----------------|
|-------------------|---------3/------|
|-12    /      X----|-X---X-----------|
|-------------------|-----------------|
  h.                          h

  >     >     >        >
|------------------|------------------|
|------------------|------------------|
|------------------|---------0-3-5----|
|-0-R-R-0-R---0-R--|-R-0-R------------|
|------------------|------------------|
  e e e e q   e e    e e q   e e q

Bass Fig. 1


|-----------------|----------------|-----------------|
|-----------------|----------------|-----------------|
|-----------------|----------------|-----------------|
|-----------------|----------------|-----------------|
|-3---3-3-3-1-----|-3---3-3-1------|-3---3-3-3-3-----|
  q   e e e q.      q   e e h       q   e e e q.

|-----------------|----------------|-----------------|
|-----------------|----------------|-----------------|
|-----------------|----------------|-----------------|
|-----------------|-3---3-3-3-2----|-3---3-3---------|
|-3---3-3-1-------|----------------|---------1-------|
  q   e e h        q   e e e q.      q   e e h

|-----------------|------------------|
|-----------------|------------------|
|-----------------|------------------|
|-3---3-3-3-2-----|-3---3-3-2/-------|
|-----------------|------------------|
  q   e e e q.      q   e e h

Verse
 w/ Bass Fig 1 – play 2 times


Chorus
w/ Bass Fig. 2 – play 3 times

Bass Fig. 3
Bass Fig. 4 – play 6 times


                   “Get ‘em out of my head…”
|-----------------|--------|---------------|-------|
|-----------------|--------|---------------|-------|
|-----------------|--------|---------------|-------|
|-3-0-R-0-R-0-3-0-|---R----|---R-----------|---R---|
|-----------------|--------|---------------|-------|
  e e e e e e e e     h        w

“out”
Bass Fig. 5           End Bass Fig. 5
|----------------|-------|
|----------------|-------|
|----------------|-------|
|-3-0-R-0-R------|---R---|
|----------------|-------|
  e e e e h          h

Bass Fig. 5 – play 3 times
Bass Fig. 4 – play 4 times

Bass Fig. 6
|-------------------|---------|-------|-------|
|-o-----------------|---------|-- % --|-- % --|
|-------------------|---------|-------|-------|
|-o-0---R---R-------|---R-----|-------|-------|
|-------------------|---------|-------|-------|
  q   q   h

                                                     End Bass Fig. 6
|------------------|----------|-----------------|----------|
|------------------|----------|-----------------|--------o-|
|------------------|----------|-----------------|----------|
|-3-0-R-0-R-0-3-0--|-5---6----|-3-0-R-0-R-0-3-0-|-5---6--o-|
|------------------|----------|-----------------|----------|
  e e e e e e e e    q   q      e e e e e e e e   q   q

                    >     Bass Fig. 7                 End Bass Fig. 7
|-------|----------------|-------------------|----------------|
|--REST-|----------------|-o-----------------|--------------o-|
|-------|----------------|-------------------|----------------|
|--|3|--|----------------|-o-----------------|--------------o-|
|-------|-R-------3-1----|---3-R-3-3-3-3-R-3-|-3-R-3-3-3-1----|
          h       e q.     e e e e e e e e   e e e e e q.

Bass Fig. 7 – play 14 times

|-----------------|-------|-------|------------------|
|-----------------|-- % --|-- % --|------------------|
|-----------------|-------|-------|------------------|
|-----------------|-------|-------|------------------|
|-3-R-3-3-3-1-----|-------|-------|-3-R-3-3-3-1---1--|
  e e e e e q.                      e e e e e q   e

|-----------------|------------------|-----|-----|-----|-----|
|-----------------|------------------|----   ----|----   ----|
|-----------------|------------------|---- % ----|---- % ----|
|-----------------|------------------|----   ----|----   ----|
|-3-3-1-1-3-3-1-1-|-3-R-3-3-3-1---1--|-----|-----|-----|-----|
  e e e e e e e e   e e e e e q   e

|-----------------|-------|-------|
|-----------------|-- % --|-- % --|
|-----------------|-------|-------|
|-----------------|-------|-------|
|-3-3-1-1-3-3-1-1-|-------|-------|
  e e e e e e e e

Bass Fig. 6
Bass Fig. 4 – play 2 times
Bass Fig. 3
Bass Fig. 4 – play 6 times

Bass Fig. 8                     End Bass fig. 8
|-----------------|-----------------|
|-0-0-3-0-5-0-6-0-|-5-0-3-0-5-0-6-0-|
|-----------------|-----------------|
|-----------------|-----------------|
|-----------------|-----------------|

                       x4
|-----|-----|------|-----|
|---     ---|-o--     -o-|
|---  %  ---|----  %  ---|
|---     ---|-o--     -o-|
|-----|-----|-----|------|

|-----------------|-------|
|-0-0-3-0-5-0-6-0-|-- % --|
|-----------------|-------|
|-----------------|-------|
|-----------------|-------|
Shoot Me Again
Riff 1: Guitar

Riff 2 (comes in at 00:20, play 6 times):
F----------------------------------------|
C----------------------------------------|
G----------------------------------------|
C--0-0-32--0-0-32--0-0-32--0-0-32--------|

Riff 3 (play 6 times)
F-------------------|
C-------------------|
G-------------------|
C--/8-0-0-7-0-0-0---|

Riff 4 (play 4 times):
F----------------------|
C----------------------|
G----------------------|
C--0-0-32--0-0-32------|
"Been here before..."

Fill:
F------------|
C------------|
G------------|
C--/8----7---|

Riff 4 x2

Fill

Riff 5:
F--------------------------------------------------------------------|
C--------------------------------------------------------------------|
G--------------------------------------------------------------------|
C--0-0---0-0---32-----0---0-0--32---0-0---0-0---32-----0---0-0-------|

Fill

Riff 5 w/Fill over Verse 1

Riff 4 x6

Fill

Riff 5

Fill

Riff 6 (listen to bass drum for timing):
F------------------------------------------------------------------------|
C-------------------------------------3--------2--0------------------3---|
G-----5---------5---3------------3-5----------------------------3-5------|
C--0---------------------------------------------------------------------|

Riff 4 x4 + Fill

Riff 4 x2 + Fill

Riff 5 w/Fill over Verse 2

Riff 4 x7 + Fill

Riff 5

Fill

Riff 6 over Chorus 2

Riff 7 (Heavy Chorus):
F-----------------------------------------------------------------------|
C-----------------------------------------------------------------------|
G--3--5-------5--5-5-5p3--3--------5-5-3-5--------------3-5--3-5--------|
C--------0-0------------------0-0-----------0h2--2--2-------------0-0---|

(continued)
F-----------------------------------------------------------------------|
C-----------------------------------------------------------------------|
G--3--5-------5--5-5-5p3--3--------5-5-3-5------------------------------|
C--------0-0------------------0-0-----------0h2--2-2-2--2--2-2-2-2-2-2--|

(continued)
F-------------------------------------------------------|
C-------------------------------------------------------|
G-------------------------------------------------------|
C--3--3-3-3--3--3-3-3-3-3-3--5--5-5-5--5--5-5-5-5-5-5---|

Riff 8 (play 4 times):
F-------------------------------------|
C-------------------------------------|
G-------------------------------------|
C--0-0--0-0---32---0--0-0---32--------|

Bridge = Riff 8 x8
"Get the *** out..."

Riff 9: Guitar
"I rage, I glaze, I hurt, I hate..."

Riff 10:
        3 times
F----------------------|---------|-------------------------------|
C----------------------|---------|-------------------------------|
G----------------------|---------|-------------------------------|
C--/8--7---3p0-0--0-2--|--/8--7--|--0-8-0-7-0-0--0-8-0-7-0-0-0---|

        2 times                      4 times
F----------------------|---------|--------------|----------|
C----------------------|---------|--------------|----------|
G----------------------|---------|--------------|----------|
C--/8--7---3p0-0--0-2--|--/8--7--|--3p0-0--0-2--|--/8--7---|
Sweet Amber
intro:
G-------------------------------------------|
D-------------------------------------------|
A---3-3-3---3-3-3-3--3-3-3------------------|
E-------------------------------------------|

Verse/Main Riff:
G-----------------------------------------|
D-----------------1-3-1-------------------|
A-1-1-333-1-1-333-------------------------|
E-----------------------------------------|
^thats not an exact count of the number of notes(duh),
just figure out how many notes on your own, 's pretty easy.
it follows the guitar.

prechorus/soft part of chorus
G----------------------------|
D----------------------------|
A-3---1----------------------|
E---------4------------------|

"using what i want"
G--------------------------|
D--------------------------|
A-3-1-1-3-1-1-3-1-1-6-6-5--|
E--------------------------|

hard part of chorus:
G---------------------------|
D---------------------------|
A--1-1-1-3-1-1-1------------|
E---------------------------|
^repeat as needed

extra at begging of verse2:
A-/13-13-13-13-13-13-13-----------

bridge
G----------------------------------------------|
D----------------------------------------------|
A-3-1-1-1-3-1-1-1-6--3-5-3-3-3-5-3-3-3---8-6-3-|
E----------------------------------------------|
This is all of the album I have so far. Enjoy!
comments
print report bad tab
I want to post or [tab]
guest
You may want to rate the tab now too:
select rating
Please do not post tabs as comments. Select "correction" instead!