Oops, an error
Loading. Please wait.

St Anger Tab

ver2
ver2
More versions @911Tabs.com
9,550 views 21 this week
1 commentread comment
1 2 3 4 5
worth learning
x 6
Autoscroll
+/-
esc
set tempo
stop
Contributor
Hey! There's an official Ultimate Guitar app which is ideal
for learning songs when you're away from computer. Get the app
WARNING: You are trying to view
                                    content from Ultimate-Guitar.com
                                    in an unauthorized application,
                                    which is prohibited.

                                    Please use an official Ultimate
                                    Guitar Tabs application for iPhone,
                                    iPad or Android to access legitimate
                                    chords, guitar, bass, and drum tabs
                                    from Ultimate-Guitar.com database.

                                    Type "ultimate guitar tabs" in Apple
                                    App Store's or Android Market's
                                    search to find the application.
                              ST. ANGER ALBUM
                              1.FRANTIC
                              2.ST. ANGER
                              3.SOME KIND OF MONSTER
                              4.DIRTY WINDOW
                              5.INVISIBLE KID
                              6.MY WORLD
                              7.SHOOT ME AGAIN
                              8.SWEET AMBER
                              9.THE UNNAMED FEELING
                              10.PURIFY
                              11.ALL WITHIN MY HANDS


1.FRANTIC
Frantic Tab by Metallica, www.Ultimate-Guitar.Com

Song: Frantic
Artist: Metallica
Album: St. Anger
Transcribed by: Jon (jon@moshpitfury.com)

=============================================================
Here's "Frantic" from Metallica's new album St. Anger.
I'm not sure if this tab is suitable for printing because I
had to make the bars pretty wide.
I believe this tab is very accurate. You'll need to listen
to the recording of the song for the exact timing. If you're
not sure on a timing issue, just play it faster and that will
probably solve it. This song will definitely give you a work
out on speed picking and accuracy. But it's really fun to
play once you've got it!. Please email me with any comments,
questions, or corrections. Thanks and enjoy!!

Tuning is Drop D tuned down 1 whole step (Drop C).

      <---- High to Low ---->
1st=D 2nd=A 3rd=F 4th=C 5th=G 6th=C
============================================================
Key:

PM = Palm Mute
/ = Slide up
\ = Slide down
p = Pull Off
h = Hammer on
^ = Staccato (note/chord played quickly then cut off [muted])

|*---------*|
|*---------*| = Repeat bars between "*" marks once.
============================================================


Intro
    Guitar 1
    PM------------>     PM------------>          PM------------>      PM----------->
D|--------------------------------------------|--------------------------------------------|
A|--------------------------------------------|--------------------------------------------|
F|*-------------------------------------------|-------------------------------------------*|
C|--------------------------------------------|--------------------------------------------|
G|*-------------------------------------------|-------------------------------------------*|
C|--0-0-0-0-0-0-0-0-----0-0-0-0-0-0-0-0-------|--0-0-0-0-0-0-0-0-----0-0-0-0-0-0-0-0-------|
 |                                                                                         |
 |Guitar 2                                                                                 |
D|--------------------------------------------|--------------------------------------------|
A|--------------------------------------------|--------------------------------------------|
F|*------------------^-------------------^----|-------------------^-------------------^---*|
C|-------------------7-------------------7----|-------------------7-------------------7----|
G|*------------------5-------------------5----|-------------------5-------------------5---*|
C|-------------------0-------------------0----|-------------------0-------------------0----|



 Guitar 1
   PM------------>      PM------------>         PM------------>       PM----------->
|--------------------------------------------|--------------------------------------------|
|--------------------------------------------|--------------------------------------------|
|*-------------------------------------------|-------------------------------------------*|
|--------------------------------------------|--------------------------------------------|
|*-------------------------------------------|-------------------------------------------*|
|--0-0-0-0-0-0-0-0------0-0-0-0-0-0-0-0------|--0-0-0-0-0-0-0-0------0-0-0-0-0-0-0-0------|
|                                                                                         |
|Guitar 2                                                                                 |
|        PM-    PM--->       PM-    PM--->            PM-    PM--->       PM-    PM--->   |
|--------------------------------------------|--------------------------------------------|
|--------------------------------------------|--------------------------------------------|
|*-------------------------------------------|-------------------------------------------*|
|--------------------------------------------|--------------------------------------------|
|*-------------------------------------------|-------------------------------------------*|
|--18-15-000-17-000000-18-15-000-17-000000---|--18-15-000-17-000000-18-15-000-17-000000---|



 Guitar 1
         PM-    PM--->       PM-    PM--->            PM-    PM--->       PM-    PM--->
|--------------------------------------------|--------------------------------------------|
|--------------------------------------------|--------------------------------------------|
|*-------------------------------------------|-------------------------------------------*|
|--------------------------------------------|--------------------------------------------|
|*-------------------------------------------|-------------------------------------------*|
|--18-15-000-17-000000-18-15-000-17-000000---|--18-15-000-17-000000-18-15-000-17-000000---|
|                                                                                         |
|Guitar 2                                                                                 |
|        PM-    PM--->       PM-    PM--->            PM-    PM--->       PM-    PM--->   |
|--------------------------------------------|--------------------------------------------|
|--------------------------------------------|--------------------------------------------|
|*-------------------------------------------|-------------------------------------------*|
|--------------------------------------------|--------------------------------------------|
|*-------------------------------------------|-------------------------------------------*|
|--18-15-000-17-000000-18-15-000-17-000000---|--18-15-000-17-000000-18-15-000-17-000000---|



 Guitar 2 (light distortion)                                              PM-------->
|--------------------------------------------|--------------------------------------------|
|--------------------------------------------|--------------------------------------------|
|--------------------------------------------|--------------------------------------------|
|--------------------------------------------|--------------------------------------------|
|--------------------------------------------|--------------------------------------------|
|--18-15-0-17-17----17-18-15-0-17-17----17---|--18-15-0-17-17----17-18-15-0-0-0-0-0-0-----|


%
Riff A (Play 4 times)
 Guitars 1&2 (distorted)                                                  PM-------->
|--------------------------------------------|--------------------------------------------|
|--------------------------------------------|--------------------------------------------|
|--------------------------------------------|--------------------------------------------|
|--------------------------------------------|--------------------------------------------|
|--------------------------------------------|--------------------------------------------|
|--18-15-0-17-17----17-18-15-0-17-17----17---|--18-15-0-17-17----17-18-15-0-0-0-0-0-0-----|



Riff B
 Guitars 1&2
          PM-------->         PM-------->              PM-------->         PM-------->
|--------------------------------------------|--------------------------------------------|
|--------------------------------------------|--------------------------------------------|
|*-------------------------------------------|-------------------------------------------*|
|--------------------------------------------|--------------------------------------------|
|*-6-\-3---------------6-\-3-----------------|--6-\-3---------------6-\-3----------------*|
|--6-\-3--0-0-0-0-0-0--6-\-3--0-0-0-0-0-0----|--6-\-3--0-0-0-0-0-0--6-\-3--0-0-0-0-0-0----|
"if i could have my wasted days back..."


Riff B1
 Guitars 1&2
   PM----------------------------------------------------------->
|--------------------------------------------|----------------------------|
|--------------------------------------------|----------------------------|
|--------------------------------------------|----------------------------|
|--------------------------------------------|----------------------------|
|--3-3-3-3-2-2-2-2-3-3-3-3-2-2-2-2-3-3-3-3---|--2-2-2-2-3-3-3-3-2-2-2-2---|
|--3-3-3-3-2-2-2-2-3-3-3-3-2-2-2-2-3-3-3-3---|--2-2-2-2-3-3-3-3-2-2-2-2---|
"do i have the strength..."


Riff B
 Guitars 1&2
          PM-------->         PM-------->              PM-------->         PM-------->
|--------------------------------------------|--------------------------------------------|
|--------------------------------------------|--------------------------------------------|
|--------------------------------------------|--------------------------------------------|
|--------------------------------------------|--------------------------------------------|
|--6-\-3---------------6-\-3-----------------|--6-\-3---------------6-\-3-----------------|
|--6-\-3--0-0-0-0-0-0--6-\-3--0-0-0-0-0-0----|--6-\-3--0-0-0-0-0-0--6-\-3--0-0-0-0-0-0----|



 Guitar 2 (light distortion)                   Guitars 1&2 (distorted)
|--------------------------------------------|--------------------------------------------|
|--------------------------------------------|--------------------------------------------|
|--------------------------------------------|--------------------------------------------|
|--------------------------------------------|--------------------------------------------|
|--------------------------------------------|--------------------------------------------|
|--18-15-0-17-17----17-18-15-0-17-17----17---|--18-15-0-17-17----17-18-15-17-17----17-----|
                                               "you live it or lie it..."

 Guitar 2 (light distortion)
|--------------------------------------------|
|--------------------------------------------|
|--------------------------------------------|
|--------------------------------------------|
|--------------------------------------------|
|--18-15-0-17-17----17-18-15-0-17-17----17---|



 Guitars 1&2
|--------------------------------------------|--------------------------------------------|
|--------------------------------------------|--------------------------------------------|
|--------------------------------------------|--------------------------------------------|
|--------------------------------------------|--------------------------------------------|
|--------------------------------------------|--------------------------------------------|
|--0-0-0-0-0-0-0-0-0-----0-0-0-0-0-0-0-0-0---|--0-0-0-0-0-0-0-0-0-----0-0-0-0-0-0-0-0-0---|
"my lifestyle determines my deathstyle..."



Pre-Chorus
 Guitar 1 (Clean)
|--------------------------------------------||--------------------------------------------|
|-----------0--------------------0-----------||-----------0--------------------0-----------|
|*-------0------0----0--------0------0----0-*||*-------0------0----0--------0------0----0-*|
|-----6--------------------6-----------------||-----6--------------------6-----------------|
|*-8--------------------8-------------------*||*-8--------------------8-------------------*|
|--------------------------------------------||--------------------------------------------|
|                                                                                          |
|Guitar 2 (light distortion)                                                               |
|--------------------------------------------||--------------------------------------------|
|--------------------------------------------||--------------------------------------------|
|*------------------------------------------*||*---/7------5------4-----------------------*|
|----6~~~~ ---3~~~ ---5~~~~ -----------------||------------------------5~~~ ---------------|
|*------------------------------------------*||*------------------------------------------*|
|--------------------------------------------||--------------------------------------------|
"keep searchin' - keep on searchin'..."


Guitar 1 (Clean)
|--------------------------------------------||--------------------------------------------|
|-----------0--------------------0-----------||-----------0--------------------0-----------|
|*-------0------0----0--------0------0----0-*||*-------0------0----0--------0------0----0-*|
|-----6--------------------6-----------------||-----6--------------------6-----------------|
|*-8--------------------8-------------------*||*-8--------------------8-------------------*|
|--------------------------------------------||--------------------------------------------|
|                                                                                          |
|Guitar 2 (light distortion)                                                               |
|--------------------------------------------||--------------------------------------------|
|--------------------------------------------||--------------------------------------------|
|*---13~~~ ---10~~ ---12~~~ ----------------*||*---/7------5------4-----------------------*|
|--------------------------------------------||------------------------5~~~ ---------------|
|*------------------------------------------*||*------------------------------------------*|
|--------------------------------------------||--------------------------------------------|
"keep searchin' - keep on searchin'..."
end Pre-Chorus



Chorus
 Guitars 1&2                PM---->                            PM---->
|------------------------------------------------------------------------
|------------------------------------------------------------------------
|*-----------------------------------------------------------------------
|------------------------------------------------------------------------
|*-----------------------------------------------------------------------
|--18-18-18-18--15--17--17--0--0--0---18-18-18-18--15--17--17--0--0--0---
 "fran-tic tick tick tick tick tick tock..."


 Guitars 1&2                PM---->
 ---------------------------------------------------------------------------------|
 ---------------------------------------------------------------------------------|
 --------------------------------------------------------------------------------*|
 ---------------------------------------------------------------------------------|
 --------------------------------------------------------------------------------*|
 --18-18-18-18--15--17--17--0--0--0---18-18-18-18-15-15-15-15-17-12-12-12-12-12---|
 "fran-tic tick tick tick tick tick tock..."
end Chorus
#

========================================================================
== Go back to "%" symbol and play to "#" symbol. Then continue below. ==
========================================================================


Bridge Riff [3:46] (Play 12 times. Played fast!!)
 Guitars 1&2
|--------------------------------------------|
|--------------------------------------------|
|--------------------------------------------|
|--------------------------------------------|
|--------------------------------------------|
|--18p0-15p0-0-0-0-0-0-0-17-0-0-0-0-0-0-0----|



Bridge Riff A [4:03] (Play 12 times. Play this fast too!)
 Guitars 1&2
|-----------------------------------------|
|-----------------------------------------|
|-----------------------------------------|
|--6p0-3p0-0-0-0-0-0-0-5-0-0-0-0-0-0-0----|
|-----------------------------------------|
|-----------------------------------------|



 Guitar 1
|------------------------------------------------|
|------------------------------------------------|
|*----------------------------------------------*|
|--6-6-6-3-3-3-5----------6-6-6-3-3-3-5----------|
|*----------------------------------------------*|
|------------------------------------------------|
|                                                |
|Guitar 2                                        |
|  PM---------------------------------------->   |
|------------------------------------------------|
|------------------------------------------------|
|*----------------------------------------------*|
|------------------------------------------------|
|*----------------------------------------------*|
|--0-0-0-0-0-0-0-0-0-0-0-0-0-0-0-0-0-0-0-0-0-0---|



 Guitars 1&2                                                                            *----->
|--------------------------------------------|--------------------------------------------------|
|--------------------------------------------|--------------------------------------------------|
|*-------------------------------------------|-------------------------------------------------*|
|--------------------------------------------|--------------------------------------------------|
|*-------------------------------------------|-------------------------------------------------*|
|--0-0-0-0-0-0-0-0-0-----0-0-0-0-0-0-0-0-0---|--0-0-0-0-0-0-0-0-0-----0-0-0-0-0-0-0-0-0-3-3-3-3-|
"my lifestyle determines my deathstyle..."
* = Guitar 2 only


================
== Pre-Chorus ==
================
==   Chorus   ==
================


Outro [5:15]
 Guitars 1&2-------------------------------->  Guitar 1
   PM->        PM->        PM->        PM->     PM->        PM->        PM->        PM->
|--------------------------------------------|--------------------------------------------|
|--------------------------------------------|--------------------------------------------|
|-----^-----------^-----------^-----------^--|-----^-----------^-----------^-----------^--|
|--0--0--------0--0--------0--0--------0--0--|--0--0--------0--0--------0--0--------0--0--|
|--0--0--------0--0--------0--0--------0--0--|--0--0--------0--0--------0--0--------0--0--|
|--0--0--------0--0--------0--0--------0--0--|--0--0--------0--0--------0--0--------0--0--|
                                             |                                            |
                                             | Guitar 2 starts riff C                     |

Riff C------------------------------------------------------------->
Guitar 2
|----------------------------|     |-------------------------------|
|----------------------------|     |-------------------------------|
|----------------------------|     |-------------------------------|
|----------------------------|3X   |-------------------------------|1X             
|----------------------------|     |-----------------------10------|
|--0--10-12--10-12-0-12-12---|     |--0--10-12--10-12-0-12----12---|


======================================
== Both Guitars play Riff C 3 times ==
======================================


|-----------------||
|-----------------||
|-----------------||
|---------End of--||
|--0------Song----||
|--0--------------||

2.ST. ANGER
St Anger Tab by Metallica, www.Ultimate-Guitar.Com

Tuned Down
Album Version     By Danny Simcox


Intro 
Guitar 1
Clean
d----------------------------------------------------------------
A----------------------------------------------------------------
F----------------------------------------------------------------
C----------------------------------------------------------------  x3
G----------------------------3-3-3-------------------------------
C--0-1-2-2-0-2-1-0-2-1-0-1-1-------------------------------------

d----------------------------------------------------------------
A----------------------------------------------------------------
F----------------------------------------------------------------
C----------------------------------------------------------------
G----------------------------------------------------------------
C-0-1-2-2-0-2-1-0-2----------------------------------------------

The when the drums kick in
a bit of distortion
d----------------------------------------------------------------
A----------------------------------------------------------------
F----------------------------------------------------------------
C----------------------------3-3-3------------------------------- x 8
G----1-2-2---2-1---2-1---1-1-3-3-3-------------------------------
C--0-1-2-2-0-2-1-0-2-1-0-1-1-------------------------------------

guitar 2 
d----------------------------------------------------------------
A----------------------------------------------------------------
F----------------------------------------------------------------
C---------------------------------------------------------------- x 8
G--2-1-0----2-1-0------------------------------------------------
C--2-1-0----2-1-0------------------------------------------------

guitar 1 
lots of distortion
d----------------------------------------------------------------
A----------------------------------------------------------------
F---------------------------------------------------------------- x 7
C---------------------------3-3-3--------------------------------
G---1-2-2---2-1---2-1---1-1-3-3-3--------------------------------
C-0-1-2-2-0-2-1-0-2-1-0-1-1--------------------------------------


Verse
d----------------------------------------------------------------
A---------1---3--------3---------3-----3-------------------------
F-----2----------------------------------------------------------
C--0-------------------------------------------------------------
G------------------3--------1--------1---------------------------
C----------------------------------------------------------------

Chorus
Guitar 1
hit these notes very quickly listen to the song for correct timing
d----------------------------------------------------------------
A---15-----13------11----10--------------------------------------
F----------------------------------------------------------------
C----------------------------------------------------------------
G----------------------------------------------------------------
C----------------------------------------------------------------
st. anger round my neck he ..........................

Guitar 2
d----------------------------------------------------------------
A----------------------------------------------------------------
F---7-----5-----3----2-------------------------------------------
C---7-----5-----2----2-------------------------------------------
G---5-----3-----1----0-------------------------------------------
C----------------------------------------------------------------

Fill bit
d----------------------------------------------------------------
A----------------------------------------------------------------
F-------------------5---3--2-------------------------------------
C-------------------5---2--2------------------------------------- x2
G--0----0-0--0-0----3---1--0-------------------------------------
C--0----0-0--0-0-------------------------------------------------
        x x  x x

2nd chorus sort of thing

d-----------------------------------------------------------------
A-----------------------------------------------------------------
F-------5---3---2-------------------------------------------------
C-------5---2---2------------------------------------------------- x 8
G--0----3---1---0-------------------------------------------------
C--0--------------------------------------------------------------
f*ck it all and no regrets I hit the lights on these dark sets.....


d----------------------------------------------------------------
A----------------------------------------------------------------
F----------------------------------------------------------------
C----------------------------------------------------------------
G-0---0-0---0-0---0-0---0-0--------------------------------------
C-0---0-0---0-0---0-0---0-0--------------------------------------
      x x   x x   x x   x x

Then the songs goes back into the distorted intro part.

d----------------------------------------------------------------
A----------------------------------------------------------------
F----------------------------------------------------------------
C----------------------------3-3-3------------------------------- x 8
G----1-2-2---2-1---2-1---1-1-3-3-3-------------------------------
C--0-1-2-2-0-2-1-0-2-1-0-1-1-------------------------------------

and I want my anger to be healthy....................


hope u like the tab

By Danny Simcox

3.SOME KIND OF MONSTER
Some Kind Of Monster Tab by Metallica, www.Ultimate-Guitar.Com

"Some kind of monster"

by Metallica
written by Hetfield/Ulrich/Hammett/Rock

available on "St. Anger" album

tabbed by Tero Saikkonen from Finland
tsslayer@luukku.com
www.pureheavymetal.cjb.net


Guitars Dropped-C tuning (Strings on D) 
(like all songs in "st. Anger" album, except 
"Dirty Window"(D# dropped-C#) "Invisible Kid"(A# dropped-G#)
 and "The Unnamed Feeling"(C dropped-A#))
(* Hetfield uses 7-string)

6=C 3=F
5=G 2=A
4=C 1=D


INTRO /acoustic
|------------------------------------------------------|
|------------------------------------------------------|
|------------------------------------------------------|
|------------------------------------------------------|
|-0----0-0----3--5--0------0--3--5--0--3--5--0--3--5---|
|-0----0-0----3--5--0------0--3--5--0--3--5--0--3--5---|



|------------------------------------------------------|
|------------------------------------------------------|
|------------------------------------------------------|
|------------------------------------------------------|
|-0----0-0----3--5--0------0--3--5--0--3--5--0---------|
|-0----0-0----3--5--0------0--3--5--0--3--5--0---------|



|------------------------------------------------------|
|------------------------------------------------------|
|------------------------------------------------------|
|------------------------------------------------------|
|-0----0-0----3--5--0------0--3--5--0--3--5--0--3---_--|
|-0----0-0----3--5--0------0--3--5--0--3--5--0--3--785-|



|------------------------------------------------------|
|------------------------------------------------------|
|------------------------------------------------------|
|------------------------------------------------------|
|-0----0-0----3--5--0------0--3--5--0--3--5--0---------|
|-0----0-0----3--5--0------0--3--5--0--3--5--0---------|



ALL BAND
MAINRIFF /distortion
                    P.M._____       __       __|
|-----------------------------------------------------| -4-
|-----------------------------------------------------|  T
|-----------------------------------------------------|  I
|-----------------------------------------------------|  M
|-0----0-0----3--5--0------0--3--5--0--3--5--0--3--5--|  E
|-0----0-0----3--5--0------0--3--5--0--3--5--0--3--5--|  S



|-------------------|
|-------------------|
|-------------------|
|-------------------|
|-3-3-3-------------|
|-3-3-3-------------|


GTR I
|--------------------------------------------------| 
|--------------------------------------------------|  
|--------------------------------------------------|  
|--------------------------------------------------|  
|-5--0-----------------------------3-3-3-----------|  -2-
|-5--0-----------------------------3-3-3-----------|   T
|                                                  |   I 
|GTR II                                            |   M
|--------------------------------------------------|   E
|-----------------------8--------------------------|   S
|-----------------------7--------------------------|
|--------------------------------------------------|
|--------------------------------------------------|
|--------------------------------------------------|


                           _________________________________________________
GTR I                     |1,2,3 times             |4th time                |
|--------------------------------------------------|------------------------|
|--------------------------------------------------|------------------------|
|--------------------------------------------------|------------------------|
|--------------------------------------------------|------------------------|
|-5--0-----------------------------3-3-3-----------|--------3-3-3-----------| -4-
|-5--0-----------------------------3-3-3-----------|--------3-3-3-----------|  T
|                                                  |                        |  I
|GTR II                                            |                        |  M
|--------------------------------------------------|-½----------------------|  E
|--------------------|--------------------|--------|-|----------------------|  S
|-------------10----12-------------10----12--------|-12---------------------|
|----12----12-------------12----12-----------------|------------------------|
|--------------------------------------------------|--------3-3-3-----------|
|--------------------------------------------------|--------3-3-3-----------|




  P.M.___________         ____________________________         _______________|
|-----------------------------------------------------------------------------------|-2-
|-----------------------------------------------------------------------------------| T
|-----------------------------------------------------------------------------------| I
|-----------------------------------------------------------------------------------| M
|-0-0-0-0-0-0-0-0-3---5---0--------0---0-0-0-0-0-0-0-0-0---3---0-0-0-0-0-0-0-0-3---5| E
|-0-0-0-0-0-0-0-0-3---5---0--------0---0-0-0-0-0-0-0-0-0---3---0-0-0-0-0-0-0-0-3---5| S



|-------------------|
|-------------------|
|-------------------|
|-------------------|
|-3-3-3-------------|
|-3-3-3-------------|

                           _________________________________________________
GTR I                     |1,2,3 times             |4th time                |
|--------------------------------------------------|------------------------|
|--------------------------------------------------|------------------------|
|--------------------------------------------------|------------------------|
|--------------------------------------------------|------------------------|
|-5--0-----------------------------3-3-3-----------|--------3-3-3-----------| -4-
|-5--0-----------------------------3-3-3-----------|--------3-3-3-----------|  T
|                                                  |                        |  I
|GTR II                                            |                        |  M
|--------------------------------------------------|-½----------------------|  E
|--------------------|--------------------|--------|-|----------------------|  S
|-------------10----12-------------10----12--------|-12---------------------|
|----12----12-------------12----12-----------------|------------------------|
|--------------------------------------------------|--------3-3-3-----------|
|--------------------------------------------------|--------3-3-3-----------|


GTR I
|--------------------------------------------------| 
|--------------------------------------------------|  
|--------------------------------------------------|  
|--------------------------------------------------|  
|-5--0-----------------------------3-3-3-----------|  -2-
|-5--0-----------------------------3-3-3-----------|   T
|                                                  |   I 
|GTR II                                            |   M
|--------------------------------------------------|   E
|-----------------------8--------------------------|   S
|-----------------------7--------------------------|
|--------------------------------------------------|
|--------------------------------------------------|
|--------------------------------------------------|


  P.M.___________         ____________________________         _______________|
|-----------------------------------------------------------------------------------|-2-
|-----------------------------------------------------------------------------------| T
|-----------------------------------------------------------------------------------| I
|-----------------------------------------------------------------------------------| M
|-0-0-0-0-0-0-0-0-3---5---0--------0---0-0-0-0-0-0-0-0-0---3---0-0-0-0-0-0-0-0-3---5| E
|-0-0-0-0-0-0-0-0-3---5---0--------0---0-0-0-0-0-0-0-0-0---3---0-0-0-0-0-0-0-0-3---5| S



OTHER GUITARS TACET (silence)
GTR I plays:
|--------------------------------------|-2-
|--------------------------------------| T
|--------------------------------------| I
|--------------------------------------| M
|----------_--------------_------------| E
|-0----0-10-12-----0----10-12---0------| S


BAND IN

|--------------------------------------|-4-
|--------------------------------------| T
|--------------------------------------| I
|--------------------------------------| M
|-0--------_-------0----------_--------| E
|-0----0-10-12-----0----10-12---0------| S



VERSE

  ("These are the eyes that can´t see me...")
GTR I
| |---------------------------------------------------------------------------
| |--------------------------------------------------------------------------- 
| |--------------------------------------------------------------------------- 
| |--------------------------------------------------------------------------- 
|o|-0--------_-------0----------_--------0----------------0------------------- 
| |-0----0-10-12-----0----10-12---0------0----0-10-12-----0----10-12---0------ 
| |                                                                           
| GTR II            wh/effect                                                 
| |---------------------------------------------------------------------------
|o|---------------------------------------------------------------------------
| |-----------------full*-----------------------------------------------------
| |-----------------|---------------------------------------------------------
| |-----------------6---------------------------------------------------------
| |---------------------------------------------------------------------------
                        (* notice that when there reads "full", you have to pull
			hole step that note. in this case, 6 pulls to 8. So the
			sound is --8--) 

GTR I
---------------------------------------------------------------------------| |
---------------------------------------------------------------------------| |
---------------------------------------------------------------------------| |
---------------------------------------------------------------------------| |  (<-times)
-0--------_-------0----------_--------0----------------0-------------------|o|
-0----0-10-12-----0----10-12---0------0----0-10-12-----0----10-12---0------| |
                                                                           | |
GTR II            wh/effect                                                | |
---------------------------------------------------------------------------| |
---------------------------------------------------------------------------|o|
------------------full-----------------------------------------------------| |
------------------|--------------------------------------------------------| |
------------------5--------------------------------------------------------| |
---------------------------------------------------------------------------| |




|--------------------------------------|
|--------------------------------------|
|--------------------------------------|
|--------------------------------------|
|----------_------------------_--------|
|-0----0-10-12-----0----10-12---0------|


 P.M._______________________________|
|---------------------------------------|
|---------------------------------------|
|---------------------------------------|
|---------------------------------------|
|-0----0----3-3-0----0----0----3-3-0----|
|-0----0----3-3-0----0----0----3-3-0----|



GTR I         P.M._____________________________________________|
|-----------------------------------------------------------------|
|-----------------------------------------------------------------|
|-----------------------------------------------------------------|
|-----------------------------------------------------------------|
|-0----0-3----0---0----0-0----0---0----0-0----0---0----0-0----0---| -2-
|-0----0-3----0---0----0-0----0---0----0-0----0---0----0-0----0---|  T
|                                                                 |  I
GTR II                                                            |  M
|---------½---------------½---------------½---------------½-------|  E
|---------|---------------|---------------|---------------|-------|  S
|--------10--------------10--------------10--------------10-------|
|-----------------------------------------------------------------|
|-----------------------------------------------------------------|
|-----------------------------------------------------------------|



|--------------------------------------|
|--------------------------------------|
|--------------------------------------|
|--------------------------------------|
|----------_------------------_--------|
|-0----0-10-12-----0----10-12---0------|



VERSE

  ("These are the legs in circles run...")
GTR I
| |---------------------------------------------------------------------------
| |---------------------------------------------------------------------------
| |---------------------------------------------------------------------------
| |---------------------------------------------------------------------------
|o|-0--------_-------0----------_--------0----------------0-------------------
| |-0----0-10-12-----0----10-12---0------0----0-10-12-----0----10-12---0------
| |                                                                           
| GTR II            wh/effect                                                 
| |---------------------------------------------------------------------------
|o|---------------------------------------------------------------------------
| |-----------------full*-----------------------------------------------------
| |-----------------|---------------------------------------------------------
| |-----------------6---------------------------------------------------------
| |---------------------------------------------------------------------------
                        (* notice that when there reads "full", you have to pull
			hole step that note. in this case, 6 pulls to 8. So the
			sound is --8--) 

GTR I
---------------------------------------------------------------------------| |
---------------------------------------------------------------------------| |
---------------------------------------------------------------------------| |
---------------------------------------------------------------------------| |  (<-times)
-0--------_-------0----------_--------0----------------0-------------------|o|
-0----0-10-12-----0----10-12---0------0----0-10-12-----0----10-12---0------| |
                                                                           | |
GTR II -PLAY GTR II THIS ONLY ONE TIME, 2ND TIME PLAY SAME LIKE GTR I DOES-| |
---------------------------------------------------------------------------| |
---------------------------------------------------------------------------|o|
------------------full-----------------------------------------------------| |
------------------|--------------------------------------------------------| |
------------------5--------------------------------------------------------| |
---------------------------------------------------------------------------| |


  HP.M.__________________|
|---------------------------------------| -2-
|---------------------------------------|  T
|---------------------------------------|  I
|---------------------------------------|  M
|-0-----0-----0---0-----0--1-(1)-2-(2)--|  E
|-0-----0-----0---0-----0--1-(1)-2-(2)--|  S



("We the people......")
| |-----------------------------------------------------------------------| |
|o|-----------------------------------------------------------------------|o|
| |-----------------------------------------------------------------------| |
| |-----------------------------------------------------------------------| |
|o|-0------------------------------------------------3---5-0-0---5--3---5-|o|
| |-0------------------------------------------------3---5-0-0---5--3---5-| |



|--------------------------------------------------
|--------------------------------------------------
|--------------------------------------------------
|--------------------------------------------------
|-0------3---5-0-0----3---5-0-0----3---5-0-3---5---
|-0------3---5-0-0----3---5-0-0----3---5-0-3---5---


---------------------------------------------------------|
---------------------------------------------------------|
---------------------------------------------------------|
---------------------------------------------------------|
-3---5-0-0----3---5-0-0-----3---5-0-0----3---5-0-0---5---|
-3---5-0-0----3---5-0-0-----3---5-0-0----3---5-0-0---5---|


  HP.M.__________________|
|---------------------------------------| -2-
|---------------------------------------|  T
|---------------------------------------|  I
|---------------------------------------|  M
|-0-----0-----0---0-----0--1-(1)-2-(2)--|  E
|-0-----0-----0---0-----0--1-(1)-2-(2)--|  S


MAINRIFF

                           ("Somekind of monster......")
                    P.M._____       __       __|
|-----------------------------------------------------| -4-
|-----------------------------------------------------|  T
|-----------------------------------------------------|  I
|-----------------------------------------------------|  M
|-0----0-0----3--5--0------0--3--5--0--3--5--0--3--5--|  E
|-0----0-0----3--5--0------0--3--5--0--3--5--0--3--5--|  S


  P.M.___________         ____________________________         _______________|
|------------------------------------------------------------------------------------|-2-
|------------------------------------------------------------------------------------| T
|------------------------------------------------------------------------------------| I
|------------------------------------------------------------------------------------| M
|-0-0-0-0-0-0-0-0-3---5---0--------0---0-0-0-0-0-0-0-0-0---3---0-0-0-0-0-0-0-0-3---5-| E
|-0-0-0-0-0-0-0-0-3---5---0--------0---0-0-0-0-0-0-0-0-0---3---0-0-0-0-0-0-0-0-3---5-| S




GTR I plays:
|--------------------------------------|-2-
|--------------------------------------| T
|--------------------------------------| I
|--------------------------------------| M
|----------_------------------_--------| E
|-0----0-10-12-----0----10-12---0------| S



BAND IN

|--------------------------------------|-4-
|--------------------------------------| T
|--------------------------------------| I
|--------------------------------------| M
|-0--------_-------0----------_--------| E
|-0----0-10-12-----0----10-12---0------| S


VERSE

  ("This is the face that stones you cold...")
GTR I
| |---------------------------------------------------------------------------
| |--------------------------------------------------------------------------- 
| |--------------------------------------------------------------------------- 
| |--------------------------------------------------------------------------- 
|o|-0--------_-------0----------_--------0----------------0------------------- 
| |-0----0-10-12-----0----10-12---0------0----0-10-12-----0----10-12---0------ 
| |                                                                           
| GTR II            wh/effect                                                 
| |---------------------------------------------------------------------------
|o|---------------------------------------------------------------------------
| |-----------------full*-----------------------------------------------------
| |-----------------|---------------------------------------------------------
| |-----------------6---------------------------------------------------------
| |---------------------------------------------------------------------------
                        (* notice that when there reads "full", you have to pull
			hole step that note. in this case, 6 pulls to 8. So the
			sound is --8--) 

GTR I
---------------------------------------------------------------------------| |
---------------------------------------------------------------------------| |
---------------------------------------------------------------------------| |
---------------------------------------------------------------------------| |  (<-times)
-0--------_-------0----------_--------0----------------0-------------------|o|
-0----0-10-12-----0----10-12---0------0----0-10-12-----0----10-12---0------| |
                                                                           | |
GTR II            wh/effect                                                | |
---------------------------------------------------------------------------| |
---------------------------------------------------------------------------|o|
------------------full-----------------------------------------------------| |
------------------|--------------------------------------------------------| |
------------------5--------------------------------------------------------| |
---------------------------------------------------------------------------| |




|--------------------------------------|
|--------------------------------------|
|--------------------------------------|
|--------------------------------------|
|----------_------------------_--------|
|-0----0-10-12-----0----10-12---0------|


 P.M._______________________________|
|---------------------------------------|
|---------------------------------------|
|---------------------------------------|
|---------------------------------------|
|-0----0----3-3-0----0----0----3-3-0----|
|-0----0----3-3-0----0----0----3-3-0----|



GTR I         P.M._____________________________________________|
|-----------------------------------------------------------------|
|-----------------------------------------------------------------|
|-----------------------------------------------------------------|
|-----------------------------------------------------------------|
|-0----0-3----0---0----0-0----0---0----0-0----0---0----0-0----0---| -2-
|-0----0-3----0---0----0-0----0---0----0-0----0---0----0-0----0---|  T
|                                                                 |  I
GTR II                                                            |  M
|---------½---------------½---------------½---------------½-------|  E
|---------|---------------|---------------|---------------|-------|  S
|--------10--------------10--------------10--------------10-------|
|-----------------------------------------------------------------|
|-----------------------------------------------------------------|
|-----------------------------------------------------------------|



|--------------------------------------|
|--------------------------------------|
|--------------------------------------|
|--------------------------------------|
|----------_------------------_--------|
|-0----0-10-12-----0----10-12---0------|



VERSE

  ("This is the test of flesh and soul...")
GTR I
| |---------------------------------------------------------------------------
| |---------------------------------------------------------------------------
| |---------------------------------------------------------------------------
| |---------------------------------------------------------------------------
|o|-0--------_-------0----------_--------0----------------0-------------------
| |-0----0-10-12-----0----10-12---0------0----0-10-12-----0----10-12---0------
| |
| GTR II            wh/effect
| |---------------------------------------------------------------------------
|o|---------------------------------------------------------------------------
| |-----------------full*-----------------------------------------------------
| |-----------------|---------------------------------------------------------
| |-----------------6---------------------------------------------------------
| |---------------------------------------------------------------------------
                        (* notice that when there reads "full", you have to pull
			hole step that note. in this case, 6 pulls to 8.
			                                  So the sound is --8--) 

GTR I
---------------------------------------------------------------------------| |
---------------------------------------------------------------------------| |
---------------------------------------------------------------------------| |
---------------------------------------------------------------------------| |   (<-times)
-0--------_-------0----------_--------0----------------0-------------------|o|
-0----0-10-12-----0----10-12---0------0----0-10-12-----0----10-12---0------| |
                                                                           | |
GTR II -PLAY GTR II THIS ONLY ONE TIME, 2ND TIME PLAY SAME LIKE GTR I DOES-| |
---------------------------------------------------------------------------| |
---------------------------------------------------------------------------|o|
------------------full-----------------------------------------------------| |
------------------|--------------------------------------------------------| |
------------------5--------------------------------------------------------| |
---------------------------------------------------------------------------| |



  HP.M.__________________|
|---------------------------------------| -2-
|---------------------------------------|  T
|---------------------------------------|  I
|---------------------------------------|  M
|-0-----0-----0---0-----0--1-(1)-2-(2)--|  E
|-0-----0-----0---0-----0--1-(1)-2-(2)--|  S



("We the people......")
| |-----------------------------------------------------------------------| |
|o|-----------------------------------------------------------------------|o|
| |-----------------------------------------------------------------------| |
| |-----------------------------------------------------------------------| |
|o|-0------------------------------------------------3---5-0-0---5--3---5-|o|
| |-0------------------------------------------------3---5-0-0---5--3---5-| |



|--------------------------------------------------
|--------------------------------------------------
|--------------------------------------------------
|--------------------------------------------------
|-0------3---5-0-0----3---5-0-0----3---5-0-3---5---
|-0------3---5-0-0----3---5-0-0----3---5-0-3---5---


---------------------------------------------------------|
---------------------------------------------------------|
---------------------------------------------------------|
---------------------------------------------------------|
-3---5-0-0----3---5-0-0-----3---5-0-0----3---5-0-0---5---|
-3---5-0-0----3---5-0-0-----3---5-0-0----3---5-0-0---5---|


  HP.M.__________________|
|---------------------------------------| -2-
|---------------------------------------|  T
|---------------------------------------|  I
|---------------------------------------|  M
|-0-----0-----0---0-----0--1-(1)-2-(2)--|  E
|-0-----0-----0---0-----0--1-(1)-2-(2)--|  S


MAINRIFF

                           ("Somekind of monster......")
                    P.M._____       __       __|
|-----------------------------------------------------| -4-
|-----------------------------------------------------|  T
|-----------------------------------------------------|  I
|-----------------------------------------------------|  M
|-0----0-0----3--5--0------0--3--5--0--3--5--0--3--5--|  E
|-0----0-0----3--5--0------0--3--5--0--3--5--0--3--5--|  S


  P.M.___________         ____________________________         _______________|
|------------------------------------------------------------------------------------|-2-
|------------------------------------------------------------------------------------| T
|------------------------------------------------------------------------------------| I
|------------------------------------------------------------------------------------| M
|-0-0-0-0-0-0-0-0-3---5---0--------0---0-0-0-0-0-0-0-0-0---3---0-0-0-0-0-0-0-0-3---5-| E
|-0-0-0-0-0-0-0-0-3---5---0--------0---0-0-0-0-0-0-0-0-0---3---0-0-0-0-0-0-0-0-3---5-| S



|--------------------------------------|
|--------------------------------------|
|--------------------------------------|
|--------------------------------------|
|----------_--------------_------------|
|-0----0-10-12-----0----10-12---0------|




ONLY GTR I PLAYS
|-------------------------------------------------------------| -2-
|-------------------------------------------------------------|  T
|-------------------------------------------------------------|  I
|-------------------------------------------------------------|  M
|---------\8----0-0-0----1------------\8----0-0-0----1-1-1----|  E
|-0----3/-------0-0-0----1----0----3/-------0-0-0----1-1-1----|  S


ALL BAND

|-------------------------------------------------------------| -4-
|-------------------------------------------------------------|  T
|-------------------------------------------------------------|  I
|-------------------------------------------------------------|  M
|---------\8----0-0-0----1------------\8----0-0-0----1-1-1----|  E
|-0----3/-------0-0-0----1----0----3/-------0-0-0----1-1-1----|  S


                                      ____________________
                                     |1st     |2nd time
| |-------------------------------------------|-----------| |
|o|-------------------------------------------|-----------|o|
| |-------------------------------------------|-----------| |
| |-------------------------------------------|-----------| |
|o|-0--3--3--0--3--3-----0--3--3--0--3--3-----|-3---___---|o|
| |-0--3--3--0--3--3-----0--3--3--0--3--3-----|-3--3-5-3--| |




 ("This is the cloud that swallows trust......")
                                         _________________
/gtr II & bass disappear in this riff/  |1st     |2nd time
| |-------------------------------------------|-----------| |
|o|-------------------------------------------|-----------|o|
| |-------------------------------------------|-----------| |
| |-------------------------------------------|-----------| |
|o|-0--3--3--0--3--3-----0--3--3--0--3--3-----|-3---___---|o|
| |-0--3--3--0--3--3-----0--3--3--0--3--3-----|-3--3-5-3--| |



("Ominous, i´m in us......")
|------------------------------------------------------------------
|------------------------------------------------------------------
|-----15------14------12------14------15------14------12------14---
|-----13------12------10------12------13------12------10------12---
|-0-------0-------0-------0-------0-------0-------0-------0--------
|-0-------0-------0-------0-------0-------0-------0-------0--------


-------------------------------------------------------------------|
-------------------------------------------------------------------|
-----16------14------12-------14------------------12---------------|
-----14------12------10-------12------------------10---------------|
-0-------0-------0--------0----------------------------------------|
-0-------0-------0--------0----------------------------------------|


                                      ____________________          
                                     |1st     |2nd time
| |-------------------------------------------|-----------| |
|o|-------------------------------------------|-----------|o|
| |-------------------------------------------|-----------| |
| |-------------------------------------------|-----------| |
|o|-0--3--3--0--3--3-----0--3--3--0--3--3-----|-3---___---|o|
| |-0--3--3--0--3--3-----0--3--3--0--3--3-----|-3--3-5-3--| |



("Ominous, i´m in us......")
|------------------------------------------------------------------
|------------------------------------------------------------------
|-----15------14------12------14------15------14------12------14---
|-----13------12------10------12------13------12------10------12---
|-0-------0-------0-------0-------0-------0-------0-------0--------
|-0-------0-------0-------0-------0-------0-------0-------0--------


-------------------------------------------------------------------|
-------------------------------------------------------------------|
-----16------14------12-------14------------------12---------------|
-----14------12------10-------12------------------10---------------|
-0-------0-------0--------0----------------------------------------|
-0-------0-------0--------0----------------------------------------|





|-------------------------------------------------------------| -2-
|-------------------------------------------------------------|  T
|-------------------------------------------------------------|  I
|-------------------------------------------------------------|  M
|---------\8----0-0-0----1------------\8----0-0-0----1-1-1----|  E
|-0----3/-------0-0-0----1----0----3/-------0-0-0----1-1-1----|  S


|-------------------|
|-------------------|
|-------------------|
|-------------------|
|-0-0-0----1-1-1----|
|-0-0-0----1-1-1----|


|-----------------------------------------------------------------|
|-----------------------------------------------------------------|
|-----------------------------------------------------------------|
|-----------------------------------------------------------------|
|-0---3-0-0-----0---3-0-0-----0-0-0----1-1-1----0-0-0----1-1-1----|
|-0---3-0-0-----0---3-0-0-----0-0-0----1-1-1----0-0-0----1-1-1----|



|-----------------------------------------------------------|
|-----------------------------------------------------------|
|-----------------------------------------------------------|
|-----------------------------------------------------------|
|-0---3-0-0-----0---3-0-0-----0---3-0-0-----0---3-0-3---5---|
|-0---3-0-0-----0---3-0-0-----0---3-0-0-----0---3-0-3---5---|


|-----------------------------------------------------------|
|-----------------------------------------------------------|
|-----------------------------------------------------------|
|-----------------------------------------------------------|
|-0---3-0-0-----0---3-0-0-----------------------------------|
|-0---3-0-0-----0---3-0-0-----------------------------------|




MAINRIFF

                           ("Somekind of monster......")
                    P.M._____       __       __|
|-----------------------------------------------------| -4-
|-----------------------------------------------------|  T
|-----------------------------------------------------|  I
|-----------------------------------------------------|  M
|-0----0-0----3--5--0------0--3--5--0--3--5--0--3--5--|  E
|-0----0-0----3--5--0------0--3--5--0--3--5--0--3--5--|  S


  P.M.___________         ____________________________         _______________|
|------------------------------------------------------------------------------------|-2-
|------------------------------------------------------------------------------------| T
|------------------------------------------------------------------------------------| I
|------------------------------------------------------------------------------------| M
|-0-0-0-0-0-0-0-0-3---5---0--------0---0-0-0-0-0-0-0-0-0---3---0-0-0-0-0-0-0-0-3---5-| E
|-0-0-0-0-0-0-0-0-3---5---0--------0---0-0-0-0-0-0-0-0-0---3---0-0-0-0-0-0-0-0-3---5-| S



|--------------------------------------| -2-
|--------------------------------------|  T
|--------------------------------------|  I
|--------------------------------------|  M
|----------_--------------_------------|  E
|-0----0-10-12-----0----10-12---0------|  S


|---12--12----------12--12---------12--12----------12--12-------|
|-12--12--12--12--12--12--12-----12--12--12--12--12--12--12-----|
|---------12--12----------12-------------12--12----------12-----|
|---------------------------------------------------------------|
|---------------------------------------------------------------|
|---------------------------------------------------------------|


			           T H E	E N D

                                       TABBED BY
			       T E R O   S A I K K O N E N
4.DIRTY WINDOW
Dirty Window Tab by Metallica, www.Ultimate-Guitar.Com

Dirty Window
By Metallica
From the album St. Anger

Dropped C Tuning

CGCFAD

                       
D|----------------------|
A|----------------------|
F|----------------------|
C|----------------------|play x6
G|----------------------|
C|-0-0-0-0--0--0--0-0--0|
(Listen to song for exact rythym)


                          
D|-------------------------|
A|-------------------------|
F|-------------------------|
C|-------------------------|play x5
G|-------------------5-----|
C|-0-3-5-0-3-5-0-3-5---6-5-|


D|---------------|
A|---------------|
F|---------------|
C|---------------|play once
G|-0----0-3----3-|
C|-0----0-3----3-|

D|-------------------------|
A|-------------------------|
F|-------------------------|
C|-------------------------|play x4 
G|-------------------5-----|
C|-0-3-5-0-3-5-0-3-5---6-5-|

D|---------------|
A|---------------|
F|---------------|
C|---------------|play once
G|-0----0-3----3-|
C|-0----0-3----3-|

D|-------------------------|
A|-------------------------|
F|-------------------------|
C|-------------------------|play twice
G|-------------------5-----|
C|-0-3-5-0-3-5-0-3-5---6-5-|
  pm-----------------------

D|-------------------------|
A|-------------------------|
F|-------------------------|
C|-------------------------|play x3
G|-------------------------|
C|-0-3-5-0-------0-3-5-7~~~|
-
D|-------------------------------------------------|
A|-------------------------------------------------|
F|-------------------------------------------------|
C|-------------------------------------------------|play once
G|-3-6-8-0-------3-6-8-------3-6-8-0---------------|
C|-3-6-8-0-------3-6-8-10~~--3-6-8-0---0-3-5-0-3-5-|

D|-------------------------|
A|-------------------------|
F|-------------------------|
C|-------------------------|play x2
G|-------------------5-----|
C|-0-3-5-0-3-5-0-3-5---6-5-|

D|--------------------------------------------|
A|--------------------------------------------|
F|--------------------------------------------|
C|--7-2-7-5---8-7-----------------------------|play twice
G|----0-0-3-----------------------------5-----|
C|--------------------0-3-5-0-3-5-0-3-5---6-5-|



D|---------|              D|--------------|
A|---------|              A|--------------|
F|---------|              F|--------------|
C|---------|play x2 then: C|--------------| 
G|-0-3-5-0-|              G|--------5-----|
C|-0-3-5-0-|              C|--0-3-5---6-5-|


D|---------|              D|--------------|
A|---------|              A|--------------|
F|---------|              F|--------------|
C|---------|play x3 then: C|--------------| play x2
G|-0-3-5-0-|              G|--------5-----|
C|-0-3-5-0-|              C|--0-3-5---6-5-|

D|----------------------|
A|----------------------|
F|----------------------|
C|----------------------|play twice
G|----------------------|
C|-0-0-0-0--0--0--0-0--0|

D|-------------------------|
A|-------------------------|
F|-------------------------|
C|-------------------------|play x4 
G|-------------------5-----|
C|-0-3-5-0-3-5-0-3-5---6-5-|

D|---------------|
A|---------------|
F|---------------|
C|---------------|play once
G|-0----0-3----3-|
C|-0----0-3----3-|

D|-------------------------|
A|-------------------------|
F|-------------------------|
C|-------------------------|play twice
G|-------------------5-----|
C|-0-3-5-0-3-5-0-3-5---6-5-|
  pm-----------------------

D|-------------------------|
A|-------------------------|
F|-------------------------|
C|-------------------------|play x3
G|-------------------------|
C|-0-3-5-0-------0-3-5-7~~~|
-
D|-------------------------------------------------|
A|-------------------------------------------------|
F|-------------------------------------------------|
C|-------------------------------------------------|play once
G|-3-6-8-0-------3-6-8-------3-6-8-0---------------|
C|-3-6-8-0-------3-6-8-10~~--3-6-8-0---0-3-5-0-3-5-|

D|-------------------------|
A|-------------------------|
F|-------------------------|
C|-------------------------|play x2
G|-------------------5-----|
C|-0-3-5-0-3-5-0-3-5---6-5-|

D|--------------------------------------------|
A|--------------------------------------------|
F|--------------------------------------------|
C|--7-2-7-5---8-7-----------------------------|play twice
G|----0-0-3-----------------------------5-----|
C|--------------------0-3-5-0-3-5-0-3-5---6-5-|



D|---------|              D|--------------|
A|---------|              A|--------------|
F|---------|              F|--------------|
C|---------|play x2 then: C|--------------| 
G|-0-3-5-0-|              G|--------5-----|
C|-0-3-5-0-|              C|--0-3-5---6-5-|


D|---------|              D|--------------|
A|---------|              A|--------------|
F|---------|              F|--------------|
C|---------|play x3 then: C|--------------| play x2
G|-0-3-5-0-|              G|--------5-----|
C|-0-3-5-0-|              C|--0-3-5---6-5-|

D|----------------------|
A|----------------------|
F|----------------------|
C|----------------------|play x18
G|----------------------|
C|-0-0-0-0--0--0--0-0--0|

D|-------------------------|
A|-------------------------|
F|-------------------------|
C|-------------------------|play x2
G|-------------------5-----|
C|-0-3-5-0-3-5-0-3-5---6-5-|

D|--------------------------------------------|
A|--------------------------------------------|
F|--------------------------------------------|
C|--7-2-7-5---8-7-----------------------------|play twice
G|----0-0-3-----------------------------5-----|
C|--------------------0-3-5-0-3-5-0-3-5---6-5-|



D|---------|              D|--------------|
A|---------|              A|--------------|
F|---------|              F|--------------|
C|---------|play x2 then: C|--------------| 
G|-0-3-5-0-|              G|--------5-----|
C|-0-3-5-0-|              C|--0-3-5---6-5-|


D|---------|              D|--------------|
A|---------|              A|--------------|
F|---------|              F|--------------|
C|---------|play x3 then: C|--------------| play x2
G|-0-3-5-0-|              G|--------5-----|
C|-0-3-5-0-|              C|--0-3-5---6-5-|



D|----------------------|
A|----------------------|
F|----------------------|
C|----------------------|play x24
G|----------------------|
C|-0-0-0-0--0--0--0-0--0|

5.INVISIBLE KID
Invisible Kid Tab by Metallica, www.Ultimate-Guitar.Com

I found this on another tab page. So credits
go to Mr. Saikkonen from Finland  "Invisible Kid"

by Metallica
written by Hetfield/Ulrich/Hammett/Rock

available on "St. Anger" album

tabbed by Tero Saikkonen from Finland!!!
tsslayer@luukku.com

JAMES ACTUALLY USES A 7-STRING GUITAR. IN THE DVD THAT CAME WITH THIS C.D.
IT SHOWS THAT! JUST A LITTLE TIP*
Guitars Dropped-G# tuning (Strings on A#) 
6=G# 3=C#
5=D# 2=F
4=G# 1=A#


INTRO /RIFF 1
-----|-----------------------------| -12- |-----------|
-----|-----------------------------|   T  |-----------|
-----|-----------------------------|   I  |-----------|
-----|-----------------------------|   M  |-----------|
-----|-0-------------------5-------|   E  |-----------|
--0--|-0-----3---0---5-0-0------0--|   S  |-0--0-0-0--|

RIFF 2
|------------------------------------------| -8-
|------------------------------------------| T
|------------------------------------------| I
|------------------------------------------| M
|-0--3----3----5--0----0--3----3----5-0----| E
|-0--3----3----5--0----0--3----3----5-0----| S


RIFF 3 (Verseriff)
|--------------------------------------------------------
|--------------------------------------------------------
|--------------------------------------------------------
|--------------------------------------------------------
|---------8-------0--0-0-0---0-0-0---8-------0---0-0-0---
|-0-0-0------0----0--0-0-0---0-0-0------0----0---0-0-0---

---------------------------------------------------| -6-
---------------------------------------------------| T
---------------------------------------------------| I
----------------------------10---10--/12---10------| M
-0-0-0---8-------0--0-0-0---8----8---/10---8---0---| E
-0-0-0------0----0--0-0-0----------------------0---| S


RIFF 4 (NOTE! =check down of this page)
|-------------------------| -4-
|-------------------------| T
|-------------------------| I
|-------------------------| M
|-3--0--0--3-----0--0--0--| E
|-3--0--0--3-----0--0--0--| S


THEN PLAY:
RIFF 3 /VERSE x 4

RIFF 4 x 8

THEN:

RIFF 5A
|-------------------------| -3- |-------------------------|
|-------------------------| T   |-------------------------|
|-------------------------| I   |-------------------------|
|--------------------__---| M   |----------8--8--9---__---|
|-0--0--0--1--1--2--2__3--| E   |-0--0--0--6--6--7--7--8--|
|-0--0--0--1--1--2--2--3--| S   |-0--0--0-----------------|

RIFF 5B (4 times)
| |-------------------------| -3- |-------------------------| |
|o|-------------------------| T   |-------------------------|o|
| |-------------------------| I   |-------------------------| |
| |-------------------------| M   |----------8--8--9--9--10-| |
|o|-0--0--0--1--1--2--2--3--| E   |-0--0--0--6--6--7--7--8--|o|
| |-0--0--0--1--1--2--2--3--| S   |-0--0--0-----------------| |

RIFF 5A
|-------------------------| -3- |-------------------------|
|-------------------------| T   |-------------------------|
|-------------------------| I   |-------------------------|
|--------------------__---| M   |----------8--8--9---__---|
|-0--0--0--1--1--2--2__3--| E   |-0--0--0--6--6--7--7--8--|
|-0--0--0--1--1--2--2--3--| S   |-0--0--0-----------------|

RIFF 5B
| |-------------------------| -3- |-------------------------| |
|o|-------------------------| T   |-------------------------|o|
| |-------------------------| I   |-------------------------| |
| |-------------------------| M   |----------8--8--9--9--10-| |
|o|-0--0--0--1--1--2--2--3--| E   |-0--0--0--6--6--7--7--8--|o|
| |-0--0--0--1--1--2--2--3--| S   |-0--0--0-----------------| |

RIFF 5C
| |-------------------------| |
|o|-------------------------|o|
| |-------------------------| |
| |-------------------------| |
|o|-0--0--0--1--1--2--2--3--|o|
| |-0--0--0--1--1--2--2--3--| |


THEN PLAY:
RIFF 3 /VERSERIFF x 6

RIFF 4 x 8

RIFF 5A

RIFF 5B x 4

RIFF 5A

RIFF 5B x 2

RIFF 5C

THEN:

RIFF 6 
|---------------------| -13-
|---------------------| T
|---------------------| I
|---------------------| M
|----8--8----8----8/--| E
|-0*---------------\--| S
(^ two guitars, gtr I takes 6 string down and gtr II takes 5 string up)
(* Dont play first time, but play all other times)

RIFF 7
|--------------------------------------------------------------|
|--------------------------------------------------------------|
|--------------------------------------------------------------|
|-7----------5----7----------5----7-----------5----8---8---8---|
|-5----------3----5----------3----5-----------3----6---6---6---|
|-0------------------------------------------------------------|


RIFF 7B
|--------------------------------------------------------------| -9-
|--------------------------------------------------------------| T
|--------------------------------------------------------------| I
|-7----------5----7----------5----7-----------5----8---8---8---| M
|-5----0--0--3----5----0--0--3----5-----0--0--3----6---6---6---| E
|-0----0--0------------0--0-------------0--0-------------------| S


THEN PLAY:
RIFF 6 x 8

RIFF 6 WITH OCTAVE HIGHER GTR x 6

RIFF 1 x 4

RIFF 2 x 2

RIFF 3 /VERSERIFF x 5

RIFF 4 x 8

RIFF 5A

RIFF 5B x 4

RIFF 5A

RIFF 5B x 2

RIFF 5C

THEN:

RIFF 8
|----------------------|3|---------------| -5-
|----------------------|T|---------------| T
|----------------------|I|---------------| I THE
|----------------------|M|---------------| M END
|-0--5----5----5----3--|E|-5------1------| E
|-0--0----0----0----0--|S|-5------1------| S

TABBED BY
T E R O S A I K K O N E N

contact me to:
t s s l a y e r @ l u u k k u . c o m


NOTE!!! Metallica play that riff 4 on live like this:
|-------------------------|
|-------------------------|
|-------------------------|
|-------------------------|
|-3--0--0--3-----5--0--0--|
|-3--0--0--3-----5--0--0--|

6.MY WORLD
My World Tab by Metallica, www.Ultimate-Guitar.Com

--------------------------------------------------------------------------------
                             My World - Metallica
--------------------------------------------------------------------------------
Tabbed by:  George Frost
Email:      george@ezaypage.fslife.co.uk

Tuning:     C-G-C-F-A-D
Tempo:      Fast Rock, 204bpm

Hi. This is guitar part 1 only for My World, by Metallica. If you want both parts
I suggest you buy the official book! Enjoy the tab.
At first glance 
Please rate this tab, because I think it's 100% correct (or as near as you will
get). Also, this is only my second tab for Ultimate Guitar.

  Intro
d|------------------------------------|----------------------------------------|
A|------------------------------------|----------------------------------------|
F|o----------------------------------o|----------------------------------------|
C|o--------------------------0-------o|-------------------------0--------------|
G|---------------------------0--------|-------------------------2--------------|
C|--0--0----0--0--0--0-------0--------|-0--0----0--0--0--0------1--------------|
    pm---------------|			pm---------------|
	     End Intro    Riff A				      End Riff A
d|----------------------|------------------------------------------------------|
A|----------------------|------------------------------------------------------|
F|----------------------|o----------------------------------------------------o|
C|----------------------|o----------------------------------------------------o|
G|----------------------|-------------------------------------0h3h5~-----------|
C|--0--0----0--0--0--0--|--0--0--0--3--0--0--5--0--0--0--0--0------------------|
    pm---------------|	      pm-|     pm-|     pm-|     pm-|
  Riff A1                              End Riff A1
d|------------------------------------------------|----------------------------|
A|------------------------------------------------|----------------------------|
F|o----------------------------------------------o|----------------------------|
C|o----------------------------------------------o|----------------------------|
G|--------------------------------------0h3h5~----|----------------------------|
C|--0--0--0--3--0--0--5--0--0--0--0--0------------|----------------------------|
       pm-|     pm-|     pm-|     pm-|
  Riff A2                             End Riff A2 Riff B
d|-----------------------------------------------|-----------------------------|
A|-----------------------------------------------|-----------------------------|
F|o---------------------------------------------o|o----------------------------|
C|o---------------------------------------------o|o----------------------------|
G|--0------3------5----------0----------0h3h5~---|-----------------------------|
C|--0------3------5----------0-------------------|--0--0--0--3--0--0--5--0--0--|
						       pm-|     pm-|     pm-|
						    |1,              End Riff B
d|-----------------------------------------------------------------------------|
A|-----------------------------------------------------------------------------|
F|----------------------------------------------------------------------------o|
C|----------------------------------------------------------------------------o|
G|-----------0h3h5~----0---------3--------5----------3----------0--------------|
C|--0--0--0------------0---------3--------5----------3----------0--------------|
       pm-|
   |2,
d|------------------------------------------|----------------------------------|
A|------------------------------------------|----------------------------------|
F|------------------------------------------|----------------------------------|
C|------------------------------------------|---Repeat-Riff-B-Six-Times-More---|
G|--(5)----3----------0---------------------|----------------------------------|
C|--(5)----3----------0---------------------|----------------------------------|

  Riff A3						            End Riff A3
d|-----------------------------------------------------------------------------|
A|-----------------------------------------------------------------------------|
F|o---------------------------------------------------------------------------o|
C|o---------------------------------------------------------------------------o|
G|--0-------3---------5----------------------------------------(5)-------------|
C|--0-------3---------5----------------------------------------(5)-------------|
								             x3
  Riff A4 - Half Time Feel				            End Riff A4
d|-----------------------------------------------------------------------------|
A|-----------------------------------------------------------------------------|
F|o---------------------------------------------------------------------------o|
C|o---------------------------------------------------------------------------o|
G|--F5--D5--------F5--D5--------G5----Ab5--D5------After-this-play-Riff-A-x4---|
C|-------------------------------------------------then-Riff-A2-x2-------------|
									     x7
  Riff C - End Half Time Feel					     End Riff C
d|-----------------------------------------------------------------------------|
A|-----------------------------------------------------------------------------|
F|o---------------------------------------------------------------------------o|
C|o---------------------------------------------------------------------------o|
G|-----------------------------------------------------------------------------|
C|--3p0--0--0--0--0--3p0------5---6p0---3p0--0--0--0--0--3p0-----5-----6p0-----|
         pm    pm-|			     pm    pm-|
  Riff D		       End Riff D Riff E		     End Riff E
d|---------------------------------------|-------------------------------------|
A|---------------------------------------|-------------------------------------|
F|o----------------------------5-(5)/7--o|o----------------------------5------o|
C|o----------------------------5-(5)/7--o|o----------------------------5------o|
G|-----------------------------3-(3)/5---|-----------------------------3-------|
C|--0--0--0--3--0--0--0--0--0------------|--0--0--0--3--0--0--0--0--0----------|
    pm----------------------|	    Repeat these 2 riffs in succession 14 times

d|-----------------------------------------------------------------------------|
A|-----------------------------------------------------------------------------|
F|o---------------------------------------------------------------------------o|
C|o---------------------------------------------------------------------------o|
G|-----------0-----------3p0--2p0--0/6-------------------------3p0--2p0--0/6---|
C|--0--0--0-----0--0--0--3p0--2p0--0/6----0--0--0--0--0--0--0--3p0--2p0--0/6---|
    pm----|     pm-|                      pm-------------|

d|-----------------------------------------------------------------------------|
A|-----------------------------------------------------------------------------|
F|-----------------------------------------------------------------------------|
C|-----------------------------------------------------------------------------|
G|-----------0-----------3p0--2p0--0/6--0--0--0--0--0--0--0--0--0--3--3--0--2--|
C|--0--0--0-----0--0--0--3p0--2p0--0/6--0--0--0--0--0--0--0--0--0--3--3--0--2--|
    pm----|     pm-|

d|-----------------------------------------------------------------------------|
A|-----------------------------------------------------------------------------|
F|-----------------------------------------------------------------------------|
C|-----------------------------------------------------------------------------|
G|--0--0/6------------------Repeat-riff-C-x1-then-riff-A4-x8-------------------|
C|--0--0/6---------------------------------------------------------------------|

  Riff F
d|---------------------------------------------------|-------------------------|
A|---------------------------------------------------|-------------------------|
F|o-------------------------------------------------o|-------------------------|
C|o-------------------------------------------------o|-------------------------|
G|--0--------------------------------------------0---|--0---------------0------|
C|--0--0--3--0--5--0--6--0--5--0--3--0--5--0--6--0---|--0---------------0------|
       pm    pm    pm    pm    pm    pm    pm
				           harms-------|
d|-----------------------------------------------------------------------------|
A|-----------------------------------------3--3--------------------------------|
F|------------------------------------------------3----------------------------|
C|-----------------------------------------------------------------------------|
G|--0----------------0--0------------------------------0-----------------------|
C|--0----------------0--0------------------------------0-----------------------|



| /     slide up
| \     slide down
| h     hammer-on
| p     pull-off
| ~     vibrato
| ()    harmonic
| x     mute note
| pm    palm muting
| harms multiple harmonics
| |1,   time bars
| *#    rest (# - no. of beats)
|==============================================================================|

There you go, there's the tab, in full. Please feel free to email me with any
questions about order, how to play, or anything in general, at the adddress at
the top of the page.

George,
george@ezaypage.fslife.co.uk
 
7.SHOOT ME AGAIN
Shoot Me Again Tab by Metallica, www.Ultimate-Guitar.Com

"Shoot Me Again"

by Metallica
written by Hetfield/Ulrich/Hammett/Rock

available on "St. Anger" album

tabbed by Tero Saikkonen from Finland
tsslayer@luukku.com
www.pureheavymetal.cjb.net


Guitars Dropped-C tuning (Strings on D) 
(like all songs in "st. Anger" album, except "Dirty Window"(C# dropped-B)
"Invisible Kid"(A# dropped-G#)
 and "The Unnamed Feeling"(C dropped-A#))

6=C 3=F
5=G 2=A
4=C 1=D


INTRO
 /flanger effect/
 (-7-)
|-----------------------------|
|-x-x-x-x-x-x-x-x-x-x-x-x-x-x-|
|-----------------------------|
|-----------------------------|
|-----------------------------|
|-----------------------------|


|---------------------| -4-
|---------------------|  T
|---------------------|  I
|---------------------|  M
|-0----0----0----0----|  E
|-0----0----0----0----|  S


|---------------------|
|---------------------|
|---------------------|
|---------------------|
|-0-------------------|
|-0-------------------|


|---------------------------------| -4-
|---------------------------------|  T
|---------------------------------|  I
|-0-----------0-----------0-------|  M
|-0-----------0-----------0-------|  E
|-0---0-0-0-0-0---0-0-0-0-0---0-0-|  S


|---------------------------------| -2-
|---------------------------------|  T
|---------------------------------|  I
|-0-----------0-----------0-------|  M
|-0-----------0-----------0-------|  E
|-0-----------0-----------0-------|  S

 ____________________________________________________________________
|1,2,3 times                      |4th time                          |
|---------------------------------|----------------------------------|
|---------------------------------|----------------------------------|
|---------------------------------|----------------------------------|
|-0-----------0-----------0-------|-0-----------0--------------------|
|-0-----------0-----------0-------|-0-----------0--------------------|
|-0---0-0-0-0-0---0-0-0-0-0---0-0-|-0---0-0-0-0-0--------------------|



MAINRIFF
|---------------------------------| -8-
|---------------------------------|  T
|---------------------------------|  I
|---------------------------------|  M
|-0---0-----5-----0---0---1-------|  E
|-0---0---0-------0---0---1-------|  S


VERSE ("I wont go away...")
 GTR I
 /distortion/
|------------------------------------------------------------------------------------------|
|------------------------------------------------------------------------------------------|
|------------------------------------------------------------------------------------------|
|------------------------------------------------------------------------------------------|
|-0---0-0----0----0----0--0---0-0----0----0----0--1---1-1----1----1----1--1-1-1-1-1-1-1----|-2-
|-0---0-0----0----0----0--0---0-0----0----0----0--1---1-1----1----1----1--1-1-1-1-1-1-1----| T
|                                                                                          | I
|GTR II                                                                                    | M
|/half-acoustic with slow-effect/                                                          | E
|------------------------------------------------------------------------------------------| S
|------------------------------------------------------------------------------------------|
|--------------------------------------------------------------------------------½-----full|
|(7)---------------------(10)--------------------(8)----------------------8-/-/-/-/-/-/----|
|-5-----------------------8-----------------------6-----------------------6-/-/-/-/-/-/----|
|------------------------------------------------------------------------------------------|


THEN PLAY:
            MAINRIFF   x 4 
         
            VERSERIFF  x 2

THEN:

("Shoot me again i ain´t dead yet...")
|------------------------------------------------| -4-
|------------------------------------------------|  T
|------------------------------------------------|  I
|------------------------------------------------|  M
|-------------------------0----3----1--------/3--|  E
|---------------------\x--0----3----1--------/3--|  S


("Shoot me again, shoot me again...!")
|--------------------------| -4-
|--------------------------|  T
|--------------------------|  I
|--------------------------|  M
|-0--0-0-0-0--0-0-0-0--0-0-|  E
|-0--0-0-0-0--0-0-0-0--0-0-|  S


("All the shots i take...")
|---------------------------------------------------
|---------------------------------------------------
|---------------------------------------------------
|---------------------------------------------------
|---------------------------------------------------
|-0---0---0-0--0-0-----0-0-3---3---0-3--0-3-----3-3-

----------------------------------------------------| -2-
----------------------------------------------------|  T
----------------------------------------------------|  I
----------------------------------------------------|  M
--------------------------5/6-6-6-6-5/6-6-6-6-5/6-6-|  E
-1---1---1-1--1-1-----1-1---------------------------|  S


("All the shots...")
|----------------------------| -2-
|----------------------------|  T
|----------------------------|  I
|----------------------------|  M
|-0-0-0-0-0-0-0--------------|  E
|-0-0-0-0-0-0-0--------------|  S


("All the shots i take...")
|-----------------------------------------------------
|-----------------------------------------------------
|-----------------------------------------------------
|-----------------------------------------------------
|-----------------------------------------------------
|-0--0--0-0--0-0--0--0-0--0-3--3--0-3--0-3--3--0-3--0-

-----------------------------------------------------| -2-
-----------------------------------------------------|  T
-----------------------------------------------------|  I
-----------------------------------------------------|  M
---------------------------5/6-6-6-6-5/6-6-6-6-5/6-6-|  E
-1--1--0-1--0-1--1--0-1--0---------------------------|  S


THEN PLAY:
           MAINRIFF  x 4

           VERSE     x 2

           MAINRIFF  x 4
   
           VERSE     x 2

THEN:

("Shoot me again i ain´t dead yet...")
|------------------------------------------------| -4-
|------------------------------------------------|  T
|------------------------------------------------|  I
|------------------------------------------------|  M
|-------------------------0----3----1--------/3--|  E
|---------------------\x--0----3----1--------/3--|  S


("Shoot me again, shoot me again...!")
|--------------------------| -4-
|--------------------------|  T
|--------------------------|  I
|--------------------------|  M
|-0--0-0-0-0--0-0-0-0--0-0-|  E
|-0--0-0-0-0--0-0-0-0--0-0-|  S


("All the shots i take...")
|---------------------------------------------------
|---------------------------------------------------
|---------------------------------------------------
|---------------------------------------------------
|---------------------------------------------------
|-0---0---0-0--0-0-----0-0-3---3---0-3--0-3-----3-3-

----------------------------------------------------| -2-
----------------------------------------------------|  T
----------------------------------------------------|  I
----------------------------------------------------|  M
--------------------------5/6-6-6-6-5/6-6-6-6-5/6-6-|  E
-1---1---1-1--1-1-----1-1---------------------------|  S


("All the shots...")
|----------------------------| -2-
|----------------------------|  T
|----------------------------|  I
|----------------------------|  M
|-0-0-0-0-0-0-0--------------|  E
|-0-0-0-0-0-0-0--------------|  S


("All the shots i take...")
|-----------------------------------------------------
|-----------------------------------------------------
|-----------------------------------------------------
|-----------------------------------------------------
|-----------------------------------------------------
|-0--0--0-0--0-0--0--0-0--0-3--3--0-3--0-3--3--0-3--0-

-----------------------------------------------------| -2-
-----------------------------------------------------|  T
-----------------------------------------------------|  I
-----------------------------------------------------|  M
---------------------------5/6-6-6-6-5/6-6-6-6-5/6-6-|  E
-1--1--0-1--0-1--1--0-1--0---------------------------|  S


THEN PLAY:
           MAINRIFF  x 4

THEN:
 /flanger effect/
 (-7-)
|-----------------------------|
|-x-x-x-x-x-x-x-x-x-x-x-x-x-x-|
|-----------------------------|
|-----------------------------|
|-----------------------------|
|-----------------------------|


|---------------------------------| -4-
|---------------------------------|  T
|---------------------------------|  I
|-0-----------0-----------0-------|  M
|-0-----------0-----------0-------|  E
|-0---0-0-0-0-0---0-0-0-0-0---0-0-|  S


|---------------------------------| -2-
|---------------------------------|  T
|---------------------------------|  I
|-0-----------0-----------0-------|  M
|-0-----------0-----------0-------|  E
|-0-----------0-----------0-------|  S

 ____________________________________________________________________
|1,2,3 times                      |4th time                          |
|---------------------------------|----------------------------------|
|---------------------------------|----------------------------------|
|---------------------------------|----------------------------------|
|-0-----------0-----------0-------|-0--------------------------------|
|-0-----------0-----------0-------|-0--------------------------------|
|-0---0-0-0-0-0---0-0-0-0-0---0-0-|-0--------------------------------|


 GTR I
|-------------------------------------------|
|-------------------------------------------|
|-------------------------------------------|
|--------_--------_--------_--------_-------|
|-0--0--6-5------6-5------6-5------6-5------| -2
|-0--0--------------------------------------|  T
|                                           |  I
|GTR II                                     |  M
|-------------------------------------------|  E
|-------------------------------------------|  S
|-------------------------------------------|
|-------------------------------------------|
|-0-0---------------------------------------|
|-0-0---------------------------------------|


|-------------------------------------------------------| -2-
|-------------------------------------------------------|  T
|-------------------------------------------------------|  I
|--------_------------_------------_------------_-------|  M
|-0--0--6-5----0--0--6-5----0--0--6-5----0--0--6-5------|  E
|-0--0---------0--0---------0--0---------0--0-----------|  S

("I bute my tongue, trying not to shoot back...")
|-----------------------------------------------------------|
|-----------------------------------------------------------|
|-----------------------------------------------------------|
|-----------------------------------------------------------|
|-1--1-1-1-1-1--1-1-1-1-1--1-1-1--1-1-1-1-1--1-1-1-1-1--1-1-|
|-1--1-1-1-1-1--1-1-1-1-1--1-1-1--1-1-1-1-1--1-1-1-1-1--1-1-|

|-------------------------------------------------------|
|-------------------------------------------------------|
|-------------------------------------------------------|
|--------_------------_------------_------------_-------|
|-0--0--6-5----0--0--6-5----0--0--6-5----0--0--6-5------|
|-0--0---------0--0---------0--0---------0--0-----------|

|-----------------------------------------------------------|
|-----------------------------------------------------------|
|-----------------------------------------------------------|
|-----------------------------------------------------------|
|-1--1-1-1-1-1--1-1-1-1-1--1-1-1--1-1-1-1-1--1-1-1-1-1--1-1-|
|-1--1-1-1-1-1--1-1-1-1-1--1-1-1--1-1-1-1-1--1-1-1-1-1--1-1-|

|-------------------------------------------------------|
|-------------------------------------------------------|
|-------------------------------------------------------|
|--------_------------_------------_------------_-------|
|-0--0--6-5----0--0--6-5----0--0--6-5----0--0--6-5------|
|-0--0---------0--0---------0--0---------0--0-----------|


|---------------------------------| -2-
|---------------------------------|  T
|---------------------------------|  I
|-0-----------0-----------0-------|  M
|-0-----------0-----------0-------|  E
|-0-----------0-----------0-------|  S


|-----------------------------------------------------------------| -2-
|-----------------------------------------------------------------|  T
|-----------------------------------------------------------------|  I
|-----------------------------------------------------------------|  M
|-0-0---0-0---0-0---0-0---0-0---0-0---0-0---0-0---0-0---0-0---0---|  E
|-0-0---0-0---0-0---0-0---0-0---0-0---0-0---0-0---0-0---0-0---0---|  S

("Wake the sleeping giant, wake the beast...")
|-----------------------------------------------------------------| -2-
|-----------------------------------------------------------------|  T
|-----------------------------------------------------------------|  I
|-----------------------------------------------------------------|  M
|-0-0---0-0---0-0---0-0---0-0---0-0---0-0---0-0---0-0---0-0---0---|  E
|-0-0---0-0---0-0---0-0---0-0---0-0---0-0---0-0---0-0---0-0---0---|  S


|-----------------------------------------------------------|
|-----------------------------------------------------------|
|-----------------------------------------------------------|
|-----------------------------------------------------------|
|-1--1-1-1-1-1--1-1-1-1-1--1-1-1--1-1-1-1-1--1-1-1-1-1--1-1-|
|-1--1-1-1-1-1--1-1-1-1-1--1-1-1--1-1-1-1-1--1-1-1-1-1--1-1-|


|---------------------------------|
|---------------------------------|
|---------------------------------|
|-0-----------0-----------0-------|
|-0-----------0-----------0-------|
|-0-----------0-----------0-------|


|---------------------------------|
|---------------------------------|
|---------------------------------|
|-0---------0-0-------0-0-------0-|
|-0-0-0---0-0-0-0-0-0-0-0-0---0-0-|
|-0-0-0-0-0-0-0-0-0-0-0-0-0-0-0-0-|


("All the shots i take...")
|-------------------------------------------------------
|-------------------------------------------------------
|-------------------------------------------------------
|-------------------------------------------------------
|-0-0-0-0-0-0-0-0-0-0-0-0-0-3-3-3-3-3-3-3-3-3-3-3-3-3-3-
|-0-0-0-0-0-0-0-0-0-0-0-0-0-3-3-3-3-3-3-3-3-3-3-3-3-3-3-

-------------------------------------------------------| -2-
-------------------------------------------------------|  T
-------------------------------------------------------|  I
-------------------------------------------------------|  M
-1---1-1---1-1---1-1---1-1-5/6-6-5/6-6-5/6-6-5/6-6-5/6-|  E
-1---1-1---1-1---1-1---1-1-----------------------------|  S


("All the shots...")
|----------------------------| -2-
|----------------------------|  T
|----------------------------|  I
|----------------------------|  M
|-0-0-0-0-0-0-0--------------|  E
|-0-0-0-0-0-0-0--------------|  S


|-------------------------------------------------------
|-------------------------------------------------------
|-------------------------------------------------------
|-------------------------------------------------------
|-0-0-0-0-0-0-0-0-0-0-0-0-0-3-3-3-3-3-3-3-3-3-3-3-3-3-3-
|-0-0-0-0-0-0-0-0-0-0-0-0-0-3-3-3-3-3-3-3-3-3-3-3-3-3-3-

-------------------------------------------------------| -2-
-------------------------------------------------------|  T
-------------------------------------------------------|  I
-------------------------------------------------------|  M
-1---1-1---1-1---1-1---1-1-5/6-6-5/6-6-5/6-6-5/6-6-5/6-|  E
-1---1-1---1-1---1-1---1-1-----------------------------|  S

THEN PLAY:
             MAINRIFF  x 4

THEN:

 /flanger effect/
 (-7-)
|-----------------------------|
|-x-x-x-x-x-x-x-x-x-x-x-x-x-x-|
|-----------------------------| THE
|-----------------------------| END
|-0---------------------------|
|-0---------------------------|

           tabbed by:
   T E R O   S A I K K O N E N
         contact me to:
t s s l a y e r @ l u u k k u . c o m


8.SWEET AMBER
Sweet Amber Tab by Metallica, www.Ultimate-Guitar.Com

Author/Artist: Metallica
Title: Sweet Amber
Album: St. Anger
Transcribed by: Trevor Cox
Email: geetarzan69@hotmail.com

Amazing song from their amazing new ablum!
Tuning is Drop D - Down 1 whole step

Clean Intro
D|-----------------------------|
A|-----------------------------|
F|-----------------------------|
C|-------------------------17b-|
G|-15/17-17-----15/17----------|
C|-0------------0--------0-----|

                       Repeat 3x
(Heavy Intro)................................
D|---------|-------------------------------|-----------------------------|
A|---------|-------------------------------|-----------------------------|
F|---------|-------------------------------|-----------------------------|
C|-X--X-X--|---5\7-7---------5\7-----------|----5\7-7--------------------|
G|-X--X-X--|---3\5-5---------3\5-----8b-8/-|----3\5-5--------------------|
C|-X--X-X--|-0---------0-000-------0-------|-0---------0-000-0-0-000-0-0-|

Verse (Kirk)
D|----------------------------------|
A|----------------------------------|
F|----------------------------------|
C|-5/7-7----------5/7---------------|
G|-3/5-5----------3/5-----8b--------|
C|--------0-000--------0------0-000-|

Verse (James)
D|-----------------------------------|
A|-----------------------------------|
F|-----------------------------------|
C|-------------------------15b-------|
G|-15/17-17--------15/17-------------|
C|-----------0-000-------0-----0-000-|

  Ohh and she holds my hand.....
D|---------------|
A|---------------|
F|-7----5---3--2-|
C|-7----5---2--2-|
G|-5----3---1--0-|
C|---------------|

D|-----------------------------|
A|-----------------------------|
F|-----------------------------|
C|-0-xx-0-xx-0-xx-3-3-3-3--2---|
G|-0-xx-0-xx-0-xx-3-3-3-3--2---|
C|-0-xx-0-xx-0-xx-3-3-3-3--2---|

  
D|------------------|
A|------------------|
F|-7---5----4--3--2-|
C|-7---5----4--2--2-|
G|-5---3----2--1--0-|
C|------------------|
   Ohh sweet amber
          
D|-----------------------------|
A|-----------------------------|
F|-----------------------------|
C|-----------------------------|
G|-0-0-0-3--5--0-0-4\5-0-------|
C|-0-0-0-3--5--0-0-4\5-0---000-|
           How sweet are you?

Interlude Riff 1
D|---------------------------------------------------------------|
A|---------------------------------------------------------------|
F|-7--------7--------7-------10-9--------------------------------|
C|---------------------------------9-------9-------14------15-14-|
G|-5--------5--------5-------8--7--7-------7-------12------13-12-|
C|---00000----00000----00000---------00000---00000----0000-------|
   She holds the pen that spells the end...

Interlude Riff 2
D|-----------------------------------------------------------|
A|-----------------------------------------------------------|
F|-----------------------------------------------------------|
C|-----------------------------------------------------------|
G|-0-0-2-0-0-0-2-0-0-0-2-0-3--2--2-2-3-2-2-2-3-2-2-2-7--8--7-|
C|-0-0-2-0-0-0-2-0-0-0-2-0-3--2--2-2-3-2-2-2-3-2-2-2-7--8--7-|

Outro
D|---------------------|
A|---------------------|
F|---------------------|
C|-6--5--3--6--5--3--0-|
G|-6--5--3--6--5--3--0-|
C|-6--5--3--6--5--3--0-|
   Never as sweet as it seems

9.THE UNNAMED FEELING
tune ure guitars too: CGCFAD 

Riff 1:
D|-------------------|
A|-------------------|
F|-------------------|
C|-0-----------------|
G|-0---0---0--0-0-0--|
C|-0---0---0--0-0-0--|
       .   .  . . .pm

Riff 2:
D|------------------|
A|------------------|
F|------------------|
C|--0---------------|
G|--0---0---0--0-0--|
C|--0---0---0--0-0--|
       .   .  . . pm

Riff 3:
D|-play this-|---------------|
A|-only the--|---------------|
F|-1st time--|---------------|
C|-----------|---------------|
G|-0-0--0-0--|-0-0-0-0--0-0--|
C|-0-0--0-0--|-0-0-0-0--0-0--|
   . .  . .    . . . .  . . pm

Riff 4:
D|---------------------------------|
A|---------------------------------|
F|---------------------------------|
C|---------------------------------|
G|-0-0--0-0---------0--0-0---------|
C|-0-0--0-0--2b3r2--0--0-0--2b3r2--|
   . .  . .         .  . . pm 

Riff 5 (use clean insted of dist)
D|-----------------------------------------------------------------|
A|-----------------------------------------------------------------|
F|--------2--2--2---------7--7--7----------2--2--2--------5--5--5--|
C|--------0--0--0---------5--5--5----------0--0--0--------3--3--3--|
G|---0----------------3----------------0--------------3------------|
C|-0---0----------0/3---3------------0---0--------0/3---3----------|

Riff 6:
D|------------------------|
A|------------------------|
F|------------------------|
C|-8---------7---------0--|
G|-8--(0-0)--7--(0-0)--0--|
C|-8--(0-0)--7--(0-0)--0--|
       . .       . . pm
Riff 7:
D|-----------|
A|-----------|
F|-----------|
C|-----------|
G|-0-0-------|
C|-0-0-1b2b1-|
   . .pm

Riff 8:
D|-------|
A|-------|
F|-3--2--|
C|-3--2--|
G|-1--0--|
C|-------|

Riff 9a (clean part again)
D|--------------------------3--3--3-------------------------------------------|
A|--------3--3--3-----------6--6--6---------6--6--6---------------------------|
F|--------2--2--2-----------5--5--5---------5--5--5-----------------5--7-7-5--|
C|--------0--0--0-----5---------------------3--3--3-------------5---5--5-5-5--|
G|---0--------------3---3----------------3-----------8--7--5--3---3-----------|
C|-0---0-------------------------------3---3---------8--7--5------------------|
                                                                              
D|-------------------------3--3--3----------------------------------|
A|--------3--3--3----------6--6--6---------6--6--6---------8--8--8--|
F|--------2--2--2----------5--5--5---------5--5--5---------7--7--7--|
C|--------0--0--0-----5--------------------3--3--3---------5--5--5--|
G|---0--------------3---3--------------3----------------5-----------|
C|-0---0-----------------------------3---3-----------/5---5---------|

Riff 9b (clean):
D|--------------------------3--3--3-------------------------------------------|
A|--------3--3--3-----------6--6--6---------6--6--6---------------------------|
F|--------2--2--2-----------5--5--5---------5--5--5-----------------5--7-7-5--|
C|--------0--0--0-----5---------------------3--3--3-------------5---5--5-5-5--|
G|---0--------------3---3----------------3-----------8--7--5--3---3-----------|
C|-0---0-------------------------------3---3---------8--7--5------------------|

D|--------------------------3--3--3--------------------------------------------------|
A|--------3--3--3-----------6--6--6---------6--6--6---------5--5--5---------6--6--6--|
F|--------2--2--2-----------5--5--5---------5--5--5---------4--4--4---------5--5--5--|
C|--------0--0--0-----5---------------------3--3--3---------2--2--2---------3--3--3--|
G|---0--------------3---3--------------3----------------2---------------3------------|
C|-0---0-----------------------------3---3------------2---2-----------3---3----------|

Riff 9c (clean):
D|--------------------------3--3--3-------------------------------------------|
A|--------3--3--3-----------6--6--6---------6--6--6---------------------------|
F|--------2--2--2-----------5--5--5---------5--5--5-----------------5--7-7-5--|
C|--------0--0--0-----5---------------------3--3--3-------------5---5--5-5-5--|
G|---0--------------3---3----------------3-----------8--7--5--3---3-----------|
C|-0---0-------------------------------3---3---------8--7--5------------------|

D|--------------------------3--3--3--------------------------------------------------|
A|--------3--3--3-----------6--6--6---------6--6--6---------5--5--5---------6--6--6--|
F|--------2--2--2-----------5--5--5---------5--5--5---------4--4--4---------5--5--5--|
C|--------0--0--0-----5---------------------3--3--3---------2--2--2---------3--3--3--|
G|---0--------------3---3--------------3----------------2---------------3------------|
C|-0---0-----------------------------3---3------------2---2-----------3---3----------|

D|------------------|
A|---------8--8--8--|
F|---------7--7--7--|
C|---------5--5--5--|
G|----5-------------|
C|--5---5-----------|

Riff 10a:
D|---------------------------------------------------|
A|---------------------------------------------------|
F|--------------5----------------3-2-0------------5--|
C|----------0---5----------------0-0-0----5-5-5-5-5--|
G|-0-0-0-0--0---3---0-3--330--3--0-0-0--3-3-3-3-3-3--|
C|-0-0-0-0--0-------0-3--330--3--0-0-0---------------|
       . .          .    ...            . . . . . pm

D|-----------------------------------------------------------------------------------------|
A|-----------------------------------------------------------------------------------------|
F|--------------5--------------------------------------------------------------------------|
C|--------------5----------------2------2------2----3------3------3----5------5------5-----|
G|-0-0-0-0--0---3---0-3--330--3--2------2------2----3------3------3----5------5------5-----|
C|-0-0-0-0--0-------0-3--330--3--2-2222-2-2222-2-22-3-3333-3-3333-3-33-5-5555-5-5555-5-55--|
       . .          .    ...       ....   ....   ..   ....   ....   ..   ....   ....   ..pm

Riff 10b:
D|---------------------------------------------------|
A|---------------------------------------------------|
F|--------------5----------------3-2-0------------5--|
C|----------0---5----------------0-0-0----5-5-5-5-5--|
G|-0-0-0-0--0---3---0-3--330--3--0-0-0--3-3-3-3-3-3--|
C|-0-0-0-0--0-------0-3--330--3--0-0-0---------------|
       . .          .    ...            . . . . . pm

D|----------------------------------------------------------------|
A|----------------------------------------------------------------|
F|--------------5-------------------------------------------------|
C|--------------5----------------2------2------2----3---2-3-5-3-2-|
G|-0-0-0-0--0---3---0-3--330--3--2------2------2----3---2-3-5-3-2-|
C|-0-0-0-0--0-------0-3--330--3--2-2222-2-2222-2-22-3---2-3-5-3-2-|
     . .            .    ...       ....   ....   ..pm
Riff 11 (guitar 2 plays upper notes):
D|---------------------------------|
A|-----------9---------------------|
F|-----------11b13-----------------|
C|---------------------------------|
G|-0-0--0-0---3-2---0-0--0-0--3-2--|
C|-0-0--0-0---3-2---0-0--0-0--3-2--|
   . .  . .   . .   . .  . .  . . pm
Riff 12:
D|----------------|
A|----------------|
F|----------------|
C|----------------|
G|-0-0--0-0--3-2--|
C|-0-0--0-0--3-2--|
   . .  . .pm
Riff 13:
D|--------------|
A|--------------|
F|--------------|
C|--------------|
G|------0--0-0--|
C|-3p0--0--0-0--|
           .  pm
Riff 14:
------------------------------|
------------------------------|
------------------------------|
------------------------------|
---8---7---0-----8---7---0-0--|
-0-8-0-7-0-0---0-8-0-7-0-0-0--|
 . . . . .     . . . . .pm

Riff 15a:
-------------------------------------------------|
-------------------------------------------------|
-------------------------------------------------|
------1^b2r1-----1^b2r1------1^b2r1------1^b2r1--|
-------------------------------------------------|
-0000--------0000-------0000--------0000---------|
 ....        ....       ....        ....pm
Riff 15b:
--------------------------------------------------------------------------|
--------------------------------------------------------------------------|
--------------------------------------------------------------------------|
------1^b2r1-1^b2r1------1^b2r1-1^b2r1-------1^b2r1-1^b2r1-1^b2r1-1^b2r1--|
--------------------------------------------------------------------------|
-0000---------------0000---------------0000-------------------------------|
 ....               ....               ....pm

10.PURIFY
#----------------------------------PLEASE NOTE--------------------------------#
#This file is the author's own work and represents their interpretation of the#
#song. You may only use this file for private study, scholarship, or research.#
#-----------------------------------------------------------------------------#
#-- File created with Instab - http://www.pconline.com/~smcarey/instab.html --#
#-----------------------------------------------------------------------------#

Author/Artist: Metallica
Title: Purify
Album: St. Anger
Transcribed by: Alex Young
Email: SaintAnger5@yahoo.com

Dropped D-Whole step down
Listen to song to get rhythm

-|--------------------------------|-----------------------------------------|-
-|--------------------------------|-----------------------------------------|-
-|--------------------------------|-----------------------------------------|-
-|--0-0-3-0-3-3-0-3--3-0-3h5-5-0--|-----------------------------------------|-
-|--0-0-3-0-3-3-0-3--3-0-3h5-5-0--|-----------------------------------------|-
-|--0-0-3-0-3-3-0-3--3-0-3h5-5-0--|-----------------------------------------|-
  pm. .   .     .      .     .                                                

-|--------------------------------------------------------------------------|-
-|--------------------------------------------------------------------------|-
-|--------------------------------------------------------------------------|-
-|--0-0----0-0----0-0----0-0----0-0----0-0----0-0----0-0--------------------|-
-|--0-0----0-0----0-0----0-0----0-0----0-0----0-0----0-0--------------------|-
-|--0-0----0-0----0-0----0-0----0-0----0-0----0-0----0-0--------------------|-
  pm. .    . .    . .    . .    . .    . .    . .    . .                      

-|--------------------------------------------------------------------------|-
-|--------------------------------------------------------------------------|-
-|--------------------------------------------------------------------------|-
-|--0-5-6-0-7-0----0-5-6-0-7-0----0-5-6-0-7-0----0-5-6-0-7-0----------------|-
-|--0-5-6-0-7-0----0-5-6-0-7-0----0-5-6-0-7-0----0-5-6-0-7-0----------------|-
-|--0-5-6-0-7-0----0-5-6-0-7-0----0-5-6-0-7-0----0-5-6-0-7-0----------------|-
    . . . .        . . . .        . . . .        . . . .                      

-|--------------------------------------------------------------------------|-
-|--------------------------------------------------------------------------|-
-|--------------------------------------------------------------------------|-
-|--7-7-7-7-7-7-7-7-6-6-6-6-6-6-6-6-5-5-5-5-5-5-5-5-6-6-6-6-6-6-6-6---------|-
-|--7-7-7-7-7-7-7-7-6-6-6-6-6-6-6-6-5-5-5-5-5-5-5-5-6-6-6-6-6-6-6-6---------|-
-|--7-7-7-7-7-7-7-7-6-6-6-6-6-6-6-6-5-5-5-5-5-5-5-5-6-6-6-6-6-6-6-6---------|-
  Chorus                                                                      

-|------------------------------------|-------------------------------------|-
-|------------------------------------|-------------------------------------|-
-|------------------------------------|-------------------------------------|-
-|------------------------------------|-------------------------------------|-
-|--0-1-2----0-1-2----0-1-2----0-1-2--|-------------------------------------|-
-|--0-1-2----0-1-2----0-1-2----0-1-2--|-------------------------------------|-
                                                                              

-|--------------------------------|-----------------------------------------|-
-|--------------------------------|-----------------------------------------|-
-|--------------------------------|-----------------------------------------|-
-|--0-0-3-0-3-3-0-3--3-0-3h5-5-0--|-----------------------------------------|-
-|--0-0-3-0-3-3-0-3--3-0-3h5-5-0--|-----------------------------------------|-
-|--0-0-3-0-3-3-0-3--3-0-3h5-5-0--|-----------------------------------------|-
    . .   .     .      .     .                                                

-|--------------------------------------------------------------------------|-
-|--------------------------------------------------------------------------|-
-|--------------------------------------------------------------------------|-
-|--0-5-6-0-7-0----0-5-6-0-7-0----0-5-6-0-7-0----0-5-6-0-7-0----------------|-
-|--0-5-6-0-7-0----0-5-6-0-7-0----0-5-6-0-7-0----0-5-6-0-7-0----------------|-
-|--0-5-6-0-7-0----0-5-6-0-7-0----0-5-6-0-7-0----0-5-6-0-7-0----------------|-
    . . . .        . . . .        . . . .        . . . .                      

-|--------------------------------------------------------------------------|-
-|--------------------------------------------------------------------------|-
-|--------------------------------------------------------------------------|-
-|--7-7-7-7-7-7-7-7-6-6-6-6-6-6-6-6-5-5-5-5-5-5-5-5-6-6-6-6-6-6-6-6---------|-
-|--7-7-7-7-7-7-7-7-6-6-6-6-6-6-6-6-5-5-5-5-5-5-5-5-6-6-6-6-6-6-6-6---------|-
-|--7-7-7-7-7-7-7-7-6-6-6-6-6-6-6-6-5-5-5-5-5-5-5-5-6-6-6-6-6-6-6-6---------|-
  Chorus                                                                      

-|------------------------------------|-------------------------------------|-
-|------------------------------------|-------------------------------------|-
-|------------------------------------|-------------------------------------|-
-|--0-1-2----0-1-2----0-1-2----0-1-2--|-------------------------------------|-
-|--0-1-2----0-1-2----0-1-2----0-1-2--|-------------------------------------|-
-|--0-1-2----0-1-2----0-1-2----0-1-2--|-------------------------------------|-
                                                                              

-|--------------------------------|-----------------------------------------|-
-|--------------------------------|-----------------------------------------|-
-|--------------------------------|-----------------------------------------|-
-|--0-0-3-0-3-3-0-3--3-0-3h5-5-0--|-----------------------------------------|-
-|--0-0-3-0-3-3-0-3--3-0-3h5-5-0--|-----------------------------------------|-
-|--0-0-3-0-3-3-0-3--3-0-3h5-5-0--|-----------------------------------------|-
    . .   .     .      .     .                                                

-|--------------------------------------------------------------------------|-
-|--------------------------------------------------------------------------|-
-|--------------------------------------------------------------------------|-
-|--0-0----0-0----0-0----0-0----0-0----0-0----0-0----0-0--------------------|-
-|--0-0----0-0----0-0----0-0----0-0----0-0----0-0----0-0--------------------|-
-|--0-0----0-0----0-0----0-0----0-0----0-0----0-0----0-0--------------------|-
    . .    . .    . .    . .    . .    . .    . .    . .                      

-|--------------------------------------------------------------------------|-
-|--------------------------------------------------------------------------|-
-|--------------------------------------------------------------------------|-
-|--------------------------------------------------------------------------|-
-|--------------------------------------------------------------------------|-
-|--0-0-3-0-3-0-3-3-0-3-0-3-0-3-3-0-3-0-3-0-3-3-0-3-0-3-0-3-3---------------|-
    . . . . . . . . . . . . . . . . . . . . . . . . . . . . .                 

-|---------------------------------------|----------------------------------|-
-|---------------------------------------|----------------------------------|-
-|---------------------------------------|----------------------------------|-
-|---------------------------------------|----------------------------------|-
-|---------------------------------------|----------------------------------|-
-|--0-0-12-0-12-12-0-12-12-0-12-0-12h15--|----------------------------------|-
                                                                              

-|---------------------------------------------------|----------------------|-
-|---------------------------------------------------|----------------------|-
-|---------------------------------------------------|----------------------|-
-|--7----3--3h5-x--3--3h5-x--0-0---------------------|----------------------|-
-|--7----3--3h5-x--3--3h5-x--0-0----12-0-12-0-12h15--|----------------------|-
-|--7----3--3h5-x--3--3h5-x--0-0----12-0-12-0-12h15--|----------------------|-
                                                                              

-|------------------------------------------------------|-------------------|-
-|------------------------------------------------------|-------------------|-
-|------------------------------------------------------|-------------------|-
-|--3-x-3-3h5-0--3-x-3-3h5-0--3-x-3-3h5-0--3-x-3-3h5-0--|-------------------|-
-|--3-x-3-3h5-0--3-x-3-3h5-0--3-x-3-3h5-0--3-x-3-3h5-0--|-------------------|-
-|--3-x-3-3h5-0--3-x-3-3h5-0--3-x-3-3h5-0--3-x-3-3h5-0--|-------------------|-
                                                                              

-|--------------------------------------------------------------------------|-
-|--------------------------------------------------------------------------|-
-|--------------------------------------------------------------------------|-
-|--------------------------------------------------------------------------|-
-|--------3--5-------------3--5-------------3--5-------------3--5-----------|-
-|--0h3h5------0-0-0-0h3h5------0-0-0-0h3h5------0-0-0-0h3h5------0-0-0-----|-
  Ending       . . .            . . .            . . .            . . .       

-|--------------------------------------------------------------------------|-
-|--------------------------------------------------------------------------|-
-|--5-5-5----------5-5-5----------------------------------------------------|-
-|--3-3-3----------3-3-3----------------------------------------------------|-
-|--3-3-3--5-------3-3-3--5-------------------------------------------------|-
-|-----------0-0-0----------0-0-0-------------------------------------------|-
  Tail end   . . .          . . .


11.ALL WITHIN MY HANDS
All Within My Hands Tab by Metallica, www.Ultimate-Guitar.Com

#----------------------------------PLEASE NOTE---------------------------------#
#This file is the author's own work and represents their interpretation of the-#
#song. You may only use this file for private study, scholarship, or research.-#
#------------------------------------------------------------------------------#

Metallica - All Within My Hands
EMail: joe_the_man3@hotmail.com
Album: St. Anger (2003)
As tabbed by Joe Muggah

Dropped D and tuned down a step (Dropped C)


Intro (palm muted harmonics with wah slowly forward and back)
d------------------------------------------------------------
A------------------------------------------------------------
F------------------------------------------------------------
C--5--5--5--5--5--5--5---------------------------------------
G--5--5--5--5--5--5--5---------------------------------------
C--5--5--5--5--5--5--5---------------------------------------



Riff 1
d------------------------------------------------------------
A------------------------------------------------------------
F------------------------------------------------------------
C-----------------------------------------3~-----------------
G--7m-7m---0m-0m---6m-6m---0m-0m---5m-4m--3~-----------------
C--7m-7m---0m-0m---6m-6m---0m-0m---5m-4m--3~-----------------


Riff 2
d------------------------------------------------------------
A------------------------------------------------------------
F------------------------------------------------------------
C--7-7--0-0--6-6--0-0-----7-7--0-0--6-6--0-0-----------------
G--7-7--0-0--6-6--0-0-----7-7--0-0--6-6--0-0-----------------
C--7-7--0-0--6-6--0-0-----7-7--0-0--6-6--0-0-----------------


Fill 1
d------------------------------------------------------------
A-----------------------------------x-x-x-x------------------
F-----------------------------------x-x-x-x------7^-----12^--
C------------------------------------------------7^-----12^--
G--x-x-x-----x-x-x-----x-x--x-x------------------------------
C--x-x-x-----x-x-x-----x-x--x-x------------------------------

Fill 2
d------------------------------------------------------------
A------------------------------------------------------------
F------------------------------------------------------------
C--3^---3^-3^-3^---7-7--0-0--6-6--0-0------------------------
G--3^---3^-3^-3^---7-7--0-0--6-6--0-0------------------------
C--3^---3^-3^-3^---7-7--0-0--6-6--0-0------------------------


Verse A (Guitar 1)
d------------------------------------------------------------
A------------------------------------------------------------
F------------------------------------------------------------
C------------------------------------------------------------
G--0-0-0-0--0-0-0-0--0-0-0-0--0-0-0-0------------------------
C--0-0-3-3--0-0-3-3--0-0-3-3--0-0-3-3------------------------


Verse B (Guitar 2)
d------------------------------------------------------------
A------------------------------------------------------------
F---17~-----17--\--12--14----12----10------------------------
C----x-------x------x---x-----x-----x------------------------
G---15~-----15--\--10--12----10-----8------------------------
C------------------------------------------------------------


Pre-Chorus
d------------------------------------------------------------
A--------10----------10----------10----------10----------10--
F-----10----10----10----10----10----10----10----10-----9-----
C--12----------12----------12----------12-----------11-------
G------------------------------------------------------------
C------------------------------------------------------------

(continued)
d------------------------------------------------------------
A---------10--------10--------10---------10----------10------
F--9----9----9----9----9----9----9----12----12----12----12---
C----11--------11--------11--------12----------12------------
G------------------------------------------------------------
C------------------------------------------------------------

(continued)
d------------------------------------------------------------
A--------10----------10----------10----------10--------------
F-----12----12----12----12----10----10----10------10p9h10----
C--12----------12----------12----------12--------------------
G------------------------------------------------------------
C------------------------------------------------------------

(continued)
d------------------------------------------------------------
A------------------------------------------------------------
F--10p9p7----7-----------------------------------------------
C---------10-------------------------------------------------
G------------------------------------------------------------
C------------------------------------------------------------


Chorus
d------------------------------------------------------------
A------------------------------------------------------------
F------------------------------------------------------------
C--0--3--3--3--3--3--3--3--3--2--2--2--2--2--2--2--2--2------
G--0--3--3--3--3--3--3--3--3--2--2--2--2--2--2--2--2--2------
C--0--3--3--3--3--3--3--3--3--2--2--2--2--2--2--2--2--2------


d------------------------------------------------------------
A------------------------------------------------------------
F------------------------------------------------------------
C--5--5--5--5--5--5--5--5--2--2--2--2------------------------
G--5--5--5--5--5--5--5--5--2--2--2--2---3m-2m-3m---3m-2m-0m--
C--5--5--5--5--5--5--5--5--2--2--2--2---3m-2m-3m---3m-2m-0m--


Post-Chorus				    end on
d------------------------------------------|-----------------
A------------------------------------------|-----------------
F------------------------------------------|-----------------
C--5-6-7-0--5-6-7-0--3-4-5-0---------------|-----------------
G--5-6-7-0--5-6-7-0--3-4-5-0--0m-0m-0m-0m--|--1m-1m-1m-1m----
C--5-6-7-0--5-6-7-0--3-4-5-0--0m-0m-0m-0m--|--1m-1m-1m-1m----


Riff 2
d------------------------------------------------------------
A------------------------------------------------------------
F------------------------------------------------------------
C--5--6--7--0----------3-------------------------------------
G--5--6--7--0--5m--7m--3-------------------------------------
C--5--6--7--0--5m--7m--3--5/6\5--3--5--5/6\5--3--------------

(continued)
d------------------------------------------------------------
A------------------------------------------------------------
F------------------------------------------------------------
C--5----------0----------3-----------------------------------
G--5--6m--7m--0--5m--7m--3-----------------------------------
C--5--6m--7m--0--5m--7m--3--5/6\5--3--5--5/6\5--3------------


Fill 3
d------------------------------------------------------------
A--8--\--7-------------------8--\--7-------------------------
F------------------------------------------------------------
C------------------------------------------------------------
G------------------------------------------------------------
C------------------------------------------------------------


Riff 3A (Guitar 1)
d------------------------------------------------------------
A------------------------------------------------------------
F------------------------------------------------------------
C------0------0------0----------0------0------0---------0--0-
G--0m--0--x---0--x---0--x---0m--0--x---0--x---0--x--0m--0--0-
C--0m--0--x---0--x---0--x---0m--0--x---0--x---0--x--0m--0--0-

Riff 3B (Guitar 2)
d--10v---10v---10v-------------------------------------------
A-----------------------10v---10v---10v----------------------
F------------------------------------------------------------
C------------------------------------------------------------
G------------------------------------------------------------
C------------------------------------------------------------


Riff 4
d------------------------------------------------------------
A------------------------------------------------------------
F------------------------------------------------------------
C--5h7-------------------------------------------------------
G--5h7--0m-0m-0m-0m-0m-0m--3m-3m-5m-5m-----------------------
C--5h7--0m-0m-0m-0m-0m-0m--3m-3m-5m-5m--6\5--3v--------------


Riff 5
d------------------------------------------------------------
A------------------------------------------------------------
F------------------------------------------------------------
C--5--5/6\5--3--5/7------------------------------------------
G--5--5/6\5--3--5/7--0m-0m-0m-0m-0m-0m-----------------------
C--5--5/6\5--3--5/7--0m-0m-0m-0m-0m-0m-----------------------


Riff 6				      end on:
d------------------------------------|-----------------------
A------------------------------------|-----------------------
F------------------------------------|-----------------------
C--0-3-5-5--5/7\5-3--5/7-------------|-----------------------
G--0-3-5-5--5/7\5-3--5/7--0m-0m-0m---|-----------------------
C--0-3-5-5--5/7\5-3--5/7--0m-0m-0m---|--7-7-7-7--5-5-5-5-----

(end on continued)
d------------------------------------------------------------
A------------------------------------------------------------
F------------------------------------------------------------
C------------------------------------------------------------
G------------------------------------------------------------
C--3-3-3-3--2-2-2-2------------------------------------------


Outro A (Guitar 1, gradually slower at the end)
d------------------------------------------------------------
A------------------------------------------------------------
F------------------------------------------------------------
C--7----6----3-----------7----6----3-------------------------
G--7----6----3-----------7----6----3-------------------------
C--7----6----3-----------7----6----3-------------------------


Outro B (Guitar 2)
d------------------------------------------------------------
A--6---8---8/9-----------------------------------------------
F------------------------------------------------------------
C------------------------------------------------------------
G------------------------------------------------------------
C------------------------------------------------------------


Intro
Riff 1
Riff 2, Fill 1
Fill 2
Verse A, Verse B
Pre-Chorus
Chorus
Post-Chorus
Riff 2
Riff 1, Fill 3
Riff 2
Riff 3A, 3B
Riff 2
Verse A, B
Verse A
Pre-Chorus
Chorus
Post-Chorus
Riff 2
Riff 1, Fill 3
Riff 2
Riff 3A, 3B
Riff 4
Riff 5
Post-Chorus
Riff 6
Post-Chorus
Riff 2
Riff 1, Fill 3
Riff 2
Verse A, B
Riff 2
Outro A
Outro A, B

                                ENJOY THE TABS AND KEEP ON PLAYING!
comments
print report bad tab
1 comment total.
-1 reply
trecoolpunk wrote on May 3 2004, 12:00 am

this is awesome....keep it coming...

I want to post or [tab]
guest
You may want to rate the tab now too:
select rating
Please do not post tabs as comments. Select "correction" instead!