Oops, an error
Loading. Please wait.

Suicide And Redemption Tab

ver2
ver2

Intro

Solo

Whole song

More versions @911Tabs.com
37,545 views 61 this week
9 commentsread comments
1 2 3 4 5
excellent!
x 16
Autoscroll
+/-
esc
set tempo
stop
Contributor
Difficulty
intermediate
Hey! There's an official Ultimate Guitar app which is ideal
for learning songs when you're away from computer. Get the app
WARNING: You are trying to view
                                    content from Ultimate-Guitar.com
                                    in an unauthorized application,
                                    which is prohibited.

                                    Please use an official Ultimate
                                    Guitar Tabs application for iPhone,
                                    iPad or Android to access legitimate
                                    chords, guitar, bass, and drum tabs
                                    from Ultimate-Guitar.com database.

                                    Type "ultimate guitar tabs" in Apple
                                    App Store's or Android Market's
                                    search to find the application.
_ _ _  __  __ _ _ _ _ _ _ _ _ _ _ _ _ _ _ _ _ _ _ _ _ _ _ _ _ _ __  __ _ _ 
      /  \/  \                                                 /  \/  \
     / /\  /\ \      SUICIDE AND REDEMPTION by METALLICA      / /\  /\ \
_ _ /_/ _\/_ \_\ _ _ _ _ _ _ _ _ _ _ _ _ _ _ _ _ _ _ _ _ _ _ /_/ _\/_ \_\_  

Tabbed By: MonkeyLink07
E-mail: oamsden@gmail.com

My favorite instrumental by Metallica, off the album 'Death Magnetic.' 

ARRANGED FOR ONE GUITAR!

     |----------------| 
     | Tablature Key  |
     |----------------|
   h    =    Hammer On 
   p    =    Pull Off
   b    =    Bend 
   r    =    Release Bend
   T    =    Tap                                               e|---
   /    =    Slide Down                                        B|---
   \    =    Slide Up                       STANDARD TUNING:   G|---
   PM * =    Palm Mute                                         D|---
   X    =    Muted Note                                        A|---
   ~    =    Vibrato                                           E|---
   H    =    Natural Harmonic
   AH   =    Artificial / Pinched Harmonic
   ()   =    Let Ring
   #/   =    Pick Scrape Down
   #\   =    Pick Scrape Up
   ""   =    Tremolo Picked
   W    =    With Whammy Bar (X steps)
|---------------|         |-----------------------|
|---------------|         |-----------------------|
|--4----4----5--|         |--4----4----/16----\4--|
|--4----4----5--|  X6     |--4----4----/16----\4--|
|--2----2----3--|         |--2----2----/14----\2--|
|--2----2----3--|         |-----------------------|

|------------------------------------------------|
|------------------------------------------------|
|------------------------------------------------|
|--4--4--4--4--4--4--4----4--4--4--4--4--4--4----|  X4
|--2--2--0--2--2--0--2p0--2--2--0--2--2--0--3p0--|
|------------------------------------------------|
PM *  *  *  *  *  *       *  *  *  *  *  *

|--------------------------------------------------|         |-------|-----|
|--------------------------------------------------|         |-------|(bass)
|--------------------------------------------------|         |-------|-----|
|--4--X--X--4--X--X--4--X--X--4--4--4--4--4--4--4--|  X3     |--4----|-----|
|--2--X--X--2--X--X--2--X--X--3--3--3--3--3--3--3--|         |--2----|-----|
|--------------------------------------------------|         |-------|-----|
PM    *  *     *  *     *  *

|-----------------------------------------|
|-----------------------------------------|
|-----------------------------------------|
|--7b8r7---4---4--4--4--4--4--4--4--4--4--|  X4
|--5b6r5---2---0--2--2--0--2--2--0--2--0--|
|-----------------------------------------|
PM             *  *  *  *  *  *  *  *  *

|--------------------------|    |----------------------------------|
|--------------------------|    |----------------------------------|
|--7--7--7--7--7--7--7--7--|    |--14--14--14--14--14--14--14--14--|
|--X--X--X--X--X--X--X--X--| X2 |--X---X---X---X---X---X---X---X---| X2
|--5--5--5--5--5--5--5--5--|    |--12--12--12--12--12--12--12--12--|
|--------------------------|    |----------------------------------|

|-----------------------------------------|
|-----------------------------------------|
|-----------------------------------------|
|--7b8r7---4---4--4--4--4--4--4--4--4--4--|  X4
|--5b6r5---2---0--2--2--0--2--2--0--2--0--|
|-----------------------------------------|
PM             *  *  *  *  *  *  *  *  *

|--------------------------|    |----------------------------------|
|--------------------------|    |----------------------------------|
|--7--7--7--7--7--7--7--7--|    |--14--14--14--14--14--14--14--14--|
|--X--X--X--X--X--X--X--X--| X2 |--X---X---X---X---X---X---X---X---| X2
|--5--5--5--5--5--5--5--5--|    |--12--12--12--12--12--12--12--12--|
|--------------------------|    |----------------------------------|

|--------------------------------------------------------------------X--|
|--------------------------------------------------------------------X--|
|------------------------5-\-4---5-\-4-------------------------------X--|
|------------------------5-\-4---5-\-4-------------------------------X--| X2
|--4--4--2--4---2--4--X--3-\-2-X-3-\-2---4--4--2--4---2--4---2--4----X--|
|--2--2--0--2---0--2--X--3-\-2-X-3-\-2---2--2--0--2---0--2---0--2----X--|
PM                    *        *               

|---------------------------------------|
|---------------------------------------|
|--9--9--9--9--9--9--10-10-10-10-10-10--|
|--X--X--X--X--X--X--X--X--X--X--X--X---|  
|--7--7--7--7--7--7--8--8--8--8--8--8---|
|---------------------------------------|

|--------------------------------------------------------------------X--|
|--------------------------------------------------------------------X--|
|------------------------5-\-4---5-\-4-------------------------------X--|
|------------------------5-\-4---5-\-4-------------------------------X--| 
|--4--4--2--4---2--4--X--3-\-2-X-3-\-2---4--4--2--4---2--4---2--4----X--|
|--2--2--0--2---0--2--X--3-\-2-X-3-\-2---2--2--0--2---0--2---0--2----X--|
PM                    *        *

|---------------------------------------------------------------------|
|---------------------------------------------------------------------|
|--9--9--9--9--9--9--10-10-10-10-10-10-11-11-11-11-11-11--------------|
|--X--X--X--X--X--X--X--X--X--X--X--X--X--X--X--X--X--X-----------13--|
|--7--7--7--7--7--7--8--8--8--8--8--8--9--9--9--9--9--9---12--13------|
|---------------------------------------------------------------------|

|--------------------------------------------|
|--------------------------------------------|
|--------------------------------------------|
|--12b13r12---4---4--4--4--4--4--4--4--4--4--| 
|-------------2---0--2--2--0--2--2--0--2--0--|
|--------------------------------------------|
PM                *  *  *  *  *  *  *  *  *

|-----------------------------------------|
|-----------------------------------------|
|-----------------------------------------|
|--7b8r7---4---4--4--4--4--4--4--4--4--4--|  X3
|--5b6r5---2---0--2--2--0--2--2--0--2--0--|
|-----------------------------------------|
PM             *  *  *  *  *  *  *  *  *

|------------------------------------|         |---------------------|
|------------------------------------|         |---------------------|
|---------7----7--------7---7----7---|         |--7---7---7----------|
|--9----9--------9----9-------9------|  x4     |---------------------|
|------------------------------------|         |---------------------|
|------------------------------------|         |---------------------|


|----------------------------------|
|----------------------------------|
|--14--14--14--14--14--14--14--14--|
|--X---X---X---X---X---X---X---X---| X2
|--12--12--12--12--12--12--12--12--|
|----------------------------------|


|------------------------------------|       
|------------------------------------|        
|---------7----7--------7---7----7---|         
|--9----9--------9----9-------9------|  x4     
|------------------------------------|         
|------------------------------------|   


|--------------------------|    |----------------------------------|
|--------------------------|    |----------------------------------|
|--7--7--7--7--7--7--7--7--|    |--14--14--14--14--14--14--14--14--|
|--X--X--X--X--X--X--X--X--| X2 |--X---X---X---X---X---X---X---X---| X2
|--5--5--5--5--5--5--5--5--|    |--12--12--12--12--12--12--12--12--|
|--------------------------|    |----------------------------------|


|--------------------------------------------------------------------X--|
|--------------------------------------------------------------------X--|
|------------------------5-\-4---5-\-4-------------------------------X--|
|------------------------5-\-4---5-\-4-------------------------------X--| X2
|--4--4--2--4---2--4--X--3-\-2-X-3-\-2---4--4--2--4---2--4---2--4----X--|
|--2--2--0--2---0--2--X--3-\-2-X-3-\-2---2--2--0--2---0--2---0--2----X--|
PM                    *        *         

|---------------------------------------------------------------------|
|---------------------------------------------------------------------|
|--9--9--9--9--9--9--10-10-10-10-10-10-11-11-11-11-11-11--------------|
|--X--X--X--X--X--X--X--X--X--X--X--X--X--X--X--X--X--X-----------13--|
|--7--7--7--7--7--7--8--8--8--8--8--8--9--9--9--9--9--9---12--13------|
|---------------------------------------------------------------------|


|--------------------------------------------|
|--------------------------------------------|
|--12b13r12---4---4--4--4--4--4--4--4--4--4--| 
|-------------2---0--2--2--0--2--2--0--2--0--|
|--------------------------------------------|
PM                *  *  *  *  *  *  *  *  *

|-----------------------------------------|
|-----------------------------------------|
|-----------------------------------------|
|--7b8r7---4---4--4--4--4--4--4--4--4--4--|  X3
|--5b6r5---2---0--2--2--0--2--2--0--2--0--|
|-----------------------------------------|
PM             *  *  *  *  *  *  *  *  *

|------------------------------|         |------------------------------|
|------------------------------|         |------------------------------|
|---------------------/7-8-9\--|         |--5-5---5-5---5--5---/7-8-9\--| 
|--2-2---2-2---2--2----X-X-X\--|  X4     |--5-5---5-5---5--5----X-X-X---|
|--2-2---2-2---2--2---/5-6-7\--|         |--3-3---3-3---3--3---/5-6-7\--|
|--0-0---0-0---0--0------------|         |--3-3---3-3---3--3------------|
PM * *   * *   *  *

|---------------------------------|
|---------------------------------|
|--------5-----------7-----7-6-5--|
|--5-----5-----7-----7-----7-6-5--|
|--5-----3--0--7-----5-----5-4-3--|
|--3--0--3-----5--0--5--0--5-4-3--|
PM    *     *     *     *

|------------------------------|         |------------------------------|
|------------------------------|         |------------------------------|
|---------------------/7-8-9\--|         |--5-5---5-5---5--5---/7-8-9\--| 
|--2-2---2-2---2--2----X-X-X\--|  X2     |--5-5---5-5---5--5----X-X-X---|
|--2-2---2-2---2--2---/5-6-7\--|         |--3-3---3-3---3--3---/5-6-7\--|
|--0-0---0-0---0--0------------|         |--3-3---3-3---3--3------------|
PM * *   * *   *  *

|-------------------------------------------------|     
|-------------------------------------------------|     OPTIONAL CLEAN PART
|--------5-----------7-----7-6-5--5-4-3--2--5--4--|       IF NOT HOLD LAST
|--5-----5-----7-----7-----7-6-5--5-4-3--2--5--4--|          POWER CHORD
|--5-----3--0--7-----5-----5-4-3--3-2-1--0--3--2--|               |
|--3--0--3-----5--0--5--0--5-4-3--3-2-1-----------|     CHORD     |
PM    *     *     *     *                      ^------------------| 
                                                                  |
|--2-----2----------------------2-------------------2--|          |
|--3-----3--------3p2-----------3---2p3p2-----------3--|   CLEAN  |     
|--4-----4-----4-------4--------4----------4--------4--| <--------| 
|--4-----4--4----------------4-------------------4-----|    
|--2-----2----------------2-------------------2--------|
|------------------------------------------------------|


|----------------------------------------------------------------|
|-------7--------7-------------7---------------------------------|
|--7h9-----9--7-----9~~~~-7h9-----9--6---9--7--6-----------------|
|-------------------------------------------------9~~~~~~~~~~~~--|  X2
|----------------------------------------------------------------|
|----------------------------------------------------------------|


|---------------------------------------------------------||-----------|
|---------7--------7-/10~~~~\------7----------------------||-----------|
|----7h9-----9--7-------------7h9-----9--7---6------------||-----------|
|-----------------------------------------------9~~~~--9~-||--------9--|  X2
|---------------------------------------------------------||-7--10-----|
|---------------------------------------------------------||-----------|


|-----------------------------------------------------------------|
|---------------------8~~~~------8-----7~~~~------7--7b8r7--------|
|-----------------------------------------------------------9~~~~-|
|---------9------------------9-9----9---------9-9-----------------|
|--7--10-------7--10----------------------------------------------|
|-----------------------------------------------------------------|


|--------------------------------------------------------------------------|
|--------------------------------------7----7-8~~-----8-8-----8-8-----7~~--|
|--9--------------7--9~~~~----7-9--7-9----9--------------------------------|
|-----7--10---10-----------10---------------------9-9-----9-9-----9-9------|
|--------------------------------------------------------------------------|
|--------------------------------------------------------------------------|


|--------------------------------------|
|------7-7-----7-7-7b9r7---------------|
|-------------------------9--7---------|
|--9-9-----9-9-----------------10~~~\--|
|--------------------------------------|
|--------------------------------------|


|---------------------------------------------------|
|---------------------------------------------------|
|------7-9-7----7-9-7-9-7----7-9-7-11-9-7-9-11~~~\--|
|--/10-------10-----------10------------------------|
|---------------------------------------------------|
|---------------------------------------------------|


|-----------------------------------------------------------------------|
|--------7--------7--------------7--------------------------------------|
|--/7h9-----9--7-----9~~~\-/7h9-----9--6---9--7p6-----------------------|
|--------------------------------------------------9\--4-2-4-5-4-2-4-5--|
|-----------------------------------------------------------------------|
|-----------------------------------------------------------------------|


|--------------------------------------------------------------------------|
|-------------7--------7--------------7------------------------------------|
|-/7~~\-/7h9-----9--7-----9~~~\-/7h9-----9--6---9--7p6---------------------|
|------------------------------------------------------9\-4-2-4-5-4-2-4-5--|
|--------------------------------------------------------------------------|
|--------------------------------------------------------------------------|


|------------------------------------------------------------------------|
|-------------7--------7-/-10~~\-------7---------------------------------|
|-/11~\-/7h9-----9--7------------/7h9------9--7--6-----------------------|
|--------------------------------------------------9~~\-4-2-4-5-4-2-4-5--|
|------------------------------------------------------------------------|
|------------------------------------------------------------------------|


|------------------2-0-2-3-2-0-2-3----------------------------------|
|--3-2-3-5-3-2-3-5--------------------------------------------------|
|-------------------------------------------------------------------|
|-------------------------------------------------------------------|
|----------------------------------2-0-2-3-2-0-2-3------------------|
|----------------------------------2-0-2-3-2-0-2-3-2-0-2-0-2-0-2-3--|
PM                                 * * * * * * * * * * * * * * * *

|------------------------------------|
|------------------------------------|
|--4\--------X-X--4--(4)--\-X-X-16\--|
|--4\--------X-X--4--(4)--\-X-X-16\--|
|--2\--------X-X--2--(2)--\-X-X-14\--|
|--2\--------X-X--2--(2)--\-X-X-14\--|
PM           * *            * *

|------------------------------------------------|
|------------------------------------------------|
|------------------------------------------------|
|--4--4--4--4--4--4--4----4--4--4--4--4--4--4----|  X4
|--2--2--0--2--2--0--2p0--2--2--0--2--2--0--3p0--|
|------------------------------------------------|
PM *  *  *  *  *  *       *  *  *  *  *  *

|---------------------------------------|
|--WITH-FEEDBACK------------------------|
|---------------------------------------|
|---------------------------------------|  X2
|--2~~~~(2)p0--2/3---2h3p2p0------------|
|----------------------------2~~~~~~~~--|

|--------------------------------------------------|       
|--------------------------------------------------|         
|--------------------------------------------------|        
|--4--X--X--4--X--X--4--X--X--4--4--4--4--4--4--4--|  X3     
|--2--X--X--2--X--X--2--X--X--3--3--3--3--3--3--3--|         
|--------------------------------------------------|         
PM    *  *     *  *     *  *

|--------------------------------------------------------|
|--------------------------------------------------------|
|-------------------------------------4h5p4p2p0----4-/---|
|-----------------------------------------------4p0------|
|--------------------------------------------------------|
|--------------------------------------------------------|
|--#/---#/---#/-----#/--#/--#/--/19\---------------------|


|-----------------------------------------------------|
|-----------------------------------------------------|
|--16-16-14----17-17-16p14----16\---4h5p4p2p0----4-/--|
|-----------17-------------17-----------------4p0-----|
|-----------------------------------------------------|
|-----------------------------------------------------|


|------------------------------------------------------------------|
|------------------------------------------------------------------|
|--17-16-14----17-16-14----16\-------------/4--4-4-4-4-------------|
|-----------17----------17-----------------------------------------|
|-------------------------------2--2-2-2-2-------------2--2-2-2-2--|
|------------------------------------------------------------------|

                    "  "  "   "   "   "   "   "   "
|-------------------7--8--10--12--14--15--17--18--19--|
|-------------------X--X--X---X---X---X---X---X---X---|
|--/4--4-4-4-4-5-5--5--6--7---9---11--12--14--15--16--|
|-----------------------------------------------------|
|-----------------------------------------------------|
|-----------------------------------------------------|

                                  "
|--------------------------------/19-----------------------------------|
|---------------------------------X------------------------------------|
|--16----------------------------/16--16-------------------------------|
|-----16-14-17--16--14-16--16-16---------16-14-17--16-14-17-16--16-16--|
|----------------------------------------------------------------------|
|----------------------------------------------------------------------|


|---------------------------/3-2h3p2-----2---------------------------------|
|------------------------------------5-3---5-3-2--5-3-2-5-3-2-3-2---3-2----|
|--/16\-/19\-/9b11r9--7h9p7\--------------------------------------4-----4--|
|--------------------------------------------------------------------------|
|--------------------------------------------------------------------------|
|--------------------------------------------------------------------------|


|--------------------------------------------22p19--19-22p19--19-22p19--|
|-------------------------------------------------22--------22----------|
|--2~-2h4--4/7--7-4-4--4h7p4h7p4--6~-6-6/7-7----------------------------|
|-----------------------------------------------------------------------|
|-----------------------------------------------------------------------|
|-----------------------------------------------------------------------|


|----19-22p19--19-22\--| 
|--22--------22--------| 
|----------------------| 
|----------------------| 
|----------------------| 
|----------------------| 

   WITH WAH-WAH PEDAL AS FILTER
|------------------------------------------------------------------|
|--5-(5)-5---2----2-2-4-4b5r4-4b5r4-4b5r4-4b5---2-2----------------|
|--4b6r4-6r4-2----2-2-4-4b6r4-4b6r4-4b6r4-4b6---2-2-4b6b4p2---2-4--|
|--------------4------------------------------4-------------4------|  X2
|------------------------------------------------------------------|
|------------------------------------------------------------------|

|---------------------------------------|
|--5/7-5--------------------------------|
|--------4b6b4--2---2-4b6--4-2~----2-4--|
|-----------------4--------------4------|
|---------------------------------------|
|---------------------------------------|


|---------------------------------------|
|--5/7-5--------------------------------|
|--------4b6b4--2---2--5--4--2~----2-4--|
|-----------------4--------------4------|  X2
|---------------------------------------|
|---------------------------------------|


|---------------------------------------------------------------------|
|---------------------------------------------------------------------|
|--4b6b4p2--4b6b4p2---4b6b4p2---4b6b4p2---4b6b4p2---4b6b4p2--4b7b4p2--|
|-------------------4---------4---------4---------4-------------------|
|---------------------------------------------------------------------|
|---------------------------------------------------------------------|


|-------------------------------------------------------------------|
|-------------------------------------------------------------------|
|--4p2---2-4p2-4p2---2-4p2-4p2---2-4p2---2-4p2-4p2-4p2-4p2-4p2---2--|
|------4-----------4-----------4-------4-----------------------4----|
|-------------------------------------------------------------------|
|-------------------------------------------------------------------|


|--------------------------------------------------------------------------|
|--------------------------------------------------------------------------|
|--5p3---4-6p4---5-7p5---6-8p6---7-9p7---8-10p8----9-11p9---10-12p10---11--|
|------5-------6-------7-------8-------9--------10--------11---------12----|
|--------------------------------------------------------------------------|
|--------------------------------------------------------------------------|

         W  -1   -2.5         STILL WITH WAH-WAH AS FILTER
|--17---------(17)------|    |---------------------------------|
|--17b19------(17)------|    |---------------------------------|
|-----------------------|    |---------------------------------|
|-----------------------|    |------------------5--------------|
|-----------------------|    |--2-0-2-3-2-0-2-3---3-2-0-2-3-2--|
|-----------------------|    |---------------------------------|


|---------------------------------|    |---------------------------------|
|---------------------------------|    |---------------------------------|
|---------------------------------|    |---------------------------------|
|---------------------------------| X2 |------------------5--------------|X2
|------------------5--------------|    |--2-0-2-3-2-0-2-3---3-2-0-2-3-2--|
|--2-0-2-3-2-0-2-3---3-2-0-2-3-2--|    |---------------------------------|


|-----------------------------------|
|-----------------------------------|
|-----------------------------------|
|------------------2----------------|
|--4-2-4-5-4-2-4-5---5-4-2-4-5-4-2--|
|-----------------------------------|


|------------------------------------------------------------------------|
|------------------------------------------------------------------------|
|------------------------------------------------------------------------|
|--8-6-8-9-8-6-8--9-7-9-10-9-7-9--10-9-10--11-10-11--12-11-12--13-12-13--|
|------------------------------------------------------------------------|
|------------------------------------------------------------------------|


|---------------------------------------------------------------------|
|---------------------------------------------------------------------| 
|--9--9--9--9--9--9--10-10-10-10-10-10-11-11-11-11-11-11--------------| WAH
|--X--X--X--X--X--X--X--X--X--X--X--X--X--X--X--X--X--X-----------13--| OFF
|--7--7--7--7--7--7--8--8--8--8--8--8--9--9--9--9--9--9---12--13------|
|---------------------------------------------------------------------|


|--------------------------------------------|
|--------------------------------------------|
|--------------------------------------------|
|--12b13r12---4---4--4--4--4--4--4--4--4--4--| 
|-------------2---0--2--2--0--2--2--0--2--0--|
|--------------------------------------------|
PM                *  *  *  *  *  *  *  *  *

|-----------------------------------------|
|-----------------------------------------|
|-----------------------------------------|
|--7b8r7---4---4--4--4--4--4--4--4--4--4--|  X3
|--5b6r5---2---0--2--2--0--2--2--0--2--0--|
|-----------------------------------------|
PM             *  *  *  *  *  *  *  *  *

|---------------------------------------------------------------------|
|---------------------------------------------------------------------|
|--7-7-7-7-7-7-7-7-7-7-7-7--------9-9-9-9-9-9-9-9-9-9-9-9-12-12-------|
|--X-X-X-X-X-X-X-X-X-X-X-X--9--7--X-X-X-X-X-X-X-X-X-X-X-X-X--X--------|
|--5-5-5-5-5-5-5-5-5-5-5-5--X--X--7-7-7-7-7-7-7-7-7-7-7-7-10-10-------|
|---------------------------7--5---------------------------------12\--|


|-------------------------|        |------------------------|
|-------------------------|        |------------------------|
|-------------------------|        |--/10-9~---7-------7----|
|-------------------------| X2     |---------9----9-8----7--| X2
|--/8-7~---5-------5------|        |------------------------|
|--------7----7-6----5~~--|        |------------------------|


|----------|     |-------------------|     |----------|
|----------|     |-------------------|     |----------|
|--10--9\--|     |--10--9--9~~~-(9)--|     |--10--9\--|
|--10--9\--|     |--10--9--9~~~-(9)--|     |--10--9\--|  X2
|---8--7\--|     |---8--7--7~~~-(7)--|     |---8--7\--|
|---8--7\--|     |---8--7--7~~~-(7)--|     |---8--7\--|

                                                                       H
|------------------------|        |----------------------------------------|
|------------------------|        |----------------------------------------|
|--/10-9~---7-------7----|        |----------------------------------------|
|---------9----9-8----7--| X3     |--/10-9----7----------------------------|
|------------------------|        |---------9----8-7----5---3~~~~----------|
|------------------------|        |--------------------------------0--2.5--|


|-------------------------------------------------------|
|-------------------------------------------------------|
|--6-6-4-6---4-6-------------------6-6-4-6--4--6---4-6--|
|--6-6-4-6---4-6---X--5--4--X--5---6-6-4-6--4--6---4-6--|  X2
|--4-4-2-4---2-4---X--5--4--X--5---4-4-2-4--2--4---2-4--|
|--4-4-2-4---2-4---X--3--2--X--3---4-4-2-4--2--4---2-4--|


|---------------------------------------------|
|---------------------------------------------|       REPEAT AND FADE
|--6-6-4-6---4-6------------------------------|     PLAY  APPROXIMATELY     
|--6-6-4-6---4-6---X--5--4--X--4--3--X--3--2--|        FIFTEEN TIMES
|--4-4-2-4---2-4---X--5--4--X--4--3--X--3--2--|
|--4-4-2-4---2-4---X--3--2--X--2--1--X--1--0--|

R.I.P. Cliff Burton
comments
print report bad tab
9 comments total. Showing first comments.
0 reply
ElStHf wrote on July 30 2009, 02:11 pm

I like your tab.I vote to be approved and now i am giving you 5.It is a well written tab,with some mistakes that are not so important.Great job-Bravo!!

0 reply
Maxim33150 wrote on August 3 2009, 08:41 am

Best version on the site : )

0 reply
Kill'emall 83 wrote on September 1 2009, 03:57 pm

solo kinda sloppy but still pretty good

I want to post or [tab]
guest
You may want to rate the tab now too:
select rating
Please do not post tabs as comments. Select "correction" instead!