Oops, an error
Loading. Please wait.

Suicide And Redemption Bass Tab

ver3
ver3

Whole song

More versions @911Tabs.com
11,650 views 21 this week
2 commentsread comments
1 2 3 4 5
excellent!
x 13
add to favorites launch autoscroll
font size
0
reset
Autoscroll
+/-
esc
set tempo
stop
Contributor
WARNING: You are trying to view
                                    content from Ultimate-Guitar.com
                                    in an unauthorized application,
                                    which is prohibited.

                                    Please use an official Ultimate
                                    Guitar Tabs application for iPhone,
                                    iPad or Android to access legitimate
                                    chords, guitar, bass, and drum tabs
                                    from Ultimate-Guitar.com database.

                                    Type "ultimate guitar tabs" in Apple
                                    App Store's or Android Market's
                                    search to find the application.
Band: Metallica
Song: Suicide & Redemption
Album: Death Magnetic (2008)
Bassist: Robert Trujillo
Tuning: Standard

Note:
I made this tab based on the bass master track of the song, so you can be
completely sure that this tab is 100% correct. 

You can hear the bass master track here:
http://www.youtube.com/watch?v=6CovuqVDX4M

Also note that the master track is from the J.H. version of the song, so I
made the tab to fit the album version.

Intro

G|---------------------------------|
D|---------------------------------|
A|---------------------------------| x19
E|-----5---7\5---5---7\5---5---8\5-|
B|-0-0---0-----0---0-----0---0-----|

G|--------------------------------|
D|--------------------------------|
A|--------------------------------|
E|-----5---7\5---5---7\5---5---8\-|
B|-0-0---0-----0---0-----0---0----|

G|----------------------------|
D|----------------------------|
A|----------------------------| x4
E|----------------------------|
B|-3/4\3-0--0-0-0-0-0-0-0-0-0-|

G|-----------------------------------------------------------------|
D|-----------------------------------------------------------------|
A|-----------------------------------------------------------------|
E|-----------------------------------------------------------------|
B|-3-3-3-3-3-3-3-3-3-3-3-3-3-3-3-3-5-5-5-5-5-5-5-5-5-6-6-6-6-6-6-6-|

G|----------------------------|
D|----------------------------|
A|----------------------------| x4
E|----------------------------|
B|-3/4\3-0--0-0-0-0-0-0-0-0-0-|

G|------------------------------------------------------------------|
D|------------------------------------------------------------------|
A|------------------------------------------------------------------|
E|---------------------------------5-5-5-5-5-5-5-5-5-5-5-5-5-5-5-5\-|
B|-3-3-3-3-3-3-3-3-3-3-3-3-3-3-3-3----------------------------------|

G|---------------------------|-------------------|
D|---------------------------|-------------------|
A|-----------------3\2---3\2-|-------------------| x2
E|-2-2-0-2--0-2--2-----2-----|-2-2-0-2--0-2--0-2-|
B|---------------------------|-------------------|

G|-------------------------|
D|-------------------------|
A|-------------------------|
E|-------------------------|
B|-5-5-5-5-5-5-6-6-6-6-6-6-|

G|---------------------------|-------------------|
D|---------------------------|-------------------|
A|-----------------3\2---3\2-|-------------------|
E|-2-2-0-2--0-2--2-----2-----|-2-2-0-2--0-2--0-2-|
B|---------------------------|-------------------|

G|-------------------------------------------|
D|-------------------------------------------|
A|-----------------------------------------6-|
E|-------------------------------------5-6---|
B|-5-5-5-5-5-5-6-6-6-6-6-6-7-7-7-7-7-7-------|

G|----------------------------|
D|----------------------------|
A|----------------------------| x8
E|----------------------------|
B|-3/4\3-0--0-0-0-0-0-0-0-0-0-|

G|--------------------------------------------------|
D|--------------------------------------------------|
A|--------------------------------------------------|
E|-10-10-10-10-10-10-10-10-10-10-10-10-10-10-10-10\-|
B|--------------------------------------------------|
 |
G|---------------------------------|
D|---------------------------------|
A|---------------------------------|
E|-5-5-5-5-5-5-5-5-5-5-5-5-5-5-5-5-|
B|---------------------------------|

G|----------------------------|
D|----------------------------|
A|----------------------------| x3
E|----------------------------|
B|-3/4\3-0--0-0-0-0-0-0-0-0-0-|

G|----------------------------|
D|----------------------------|
A|----------------------------|
E|----------------------------|
B|-3/4\3-0--0-0-0-0-0-0-3-3-3-|

G|--------------------------------------------------|
D|--------------------------------------------------|
A|--------------------------------------------------|
E|-10-10-10-10-10-10-10-10-10-10-10-10-10-10-10-10\-|
B|--------------------------------------------------|
 |
G|----------------------------------|
D|----------------------------------|
A|----------------------------------|
E|-5-5-5-5-5-5-5-5-5-5-5-5-5-5-5-5\-|
B|----------------------------------|

G|---------------------------|-------------------|
D|---------------------------|-------------------|
A|-----------------3\2---3\2-|-------------------| x2
E|-2-2-0-2--0-2--2-----2-----|-2-2-0-2--0-2--0-2-|
B|---------------------------|-------------------|

G|-------------------------------------------|
D|-------------------------------------------|
A|-----------------------------------------6-|
E|-------------------------------------5-6---|
B|-5-5-5-5-5-5-6-6-6-6-6-6-7-7-7-7-7-7-------|

G|----------------------------|
D|----------------------------|
A|----------------------------| x4
E|----------------------------|
B|-3/4\3-0--0-0-0-0-0-0-0-0-0-|

G|--------------------------------------------------------------------|
D|--------------------------------------------------------------------|
A|--------------------------------------------------------------------|
E|-0-0--0-0-0--0-0-0--0-0-0--0-0-0--0-0-0--0-0-0--0-0-0--0-0-0--0-0-0-|
B|--------------------------------------------------------------------|
 |
G|------------------------------------------------------------------|
D|------------------------------------------------------------------|
A|------------------------------------------------------------------|
E|-0-0-0--0-0-0--0-0-0--0-0-0--0-0-0--0-0---------------------------|
B|----------------------------------------1--1-1-1--1-1-1--1-1-1--1-|

G|----------------------|
D|----------------------|
A|-----3-------5--5-4-3-|
E|-3-0---0-5-0----------|
B|----------------------|

G|---------------------------------------------------------|
D|---------------------------------------------------------|
A|---------------------------------------------------------|
E|-0--0-0-0--0-0-0--0-0-0--0-0-0--0-0-0--0-0-0--0-0-0--0-0-|
B|---------------------------------------------------------|
 |
G|---------------------------|
D|---------------------------|
A|---------------------------|
E|---------------------------|
B|-1--1-1-1--1-1-1--1-1-1--1-|

G|------------------------------------|
D|------------------------------------|
A|-----3-------5--5-4-3--3-2-1--------|
E|-3-0---0-5-0------------------5-8-7-|
B|------------------------------------|

Interlude

G|---------------------------------------------------------------------|
D|---------------------------------------------------------------------|
A|---------------------------------------------------------------------|
E|---------------------5--5-5--5-5--5-5--5-7--7-7--7-7--7-7-----7--7-7-|
B|-3--3-3--3-3--3-3--3--------------------------------------7/8--------|
 |
G|-----------------------------------------------------------------|
D|-----------------------------------------------------------------|
A|-------------5--5-5--5-5--5-5--5---------------------------------|
E|-7-7--7-7--7---------------------5--5-5--5-5--5-5--5-7--7-7--7-7-|
B|-----------------------------------------------------------------|
 |
G|-----------------------|
D|-----------------------|
A|-----------------------|
E|-7-7-----7-7--7-7--7-7-|
B|-----7/8---------------|

G|------------------------------------------------------------------|
D|------------------------------------------------------------------|
A|------------------------------------------------------------------|
E|-7-7--7-7--7-7--7-7--5-5--5-5--5-5--5-5\--0-0--0-0--0-0--0-0--0-0-|
B|------------------------------------------------------------------|

G|------------------------------------------------------|
D|------------------------------------------------------|
A|------------------------------------------------------|
E|-0-0-0--0-0-0--0-0-0--0-0-0--0-0-0--0-0-0--0-0-0--0-0-|
B|------------------------------------------------------|
 |
G|---------------------------------------------------------|
D|---------------------------------------------------------|
A|---------------------------------------------------------|
E|-0--0-0-0--0-0-0--0-0-0--0-0-0--0-0-0--0-0-0--0-0-0--0-0-|
B|---------------------------------------------------------|

G|---------------------------------------------|
D|---------------------------------------------|
A|------------------------------3\----5--5-4-3-|
E|---------------------------3-----5-----------|
B|-1--1-1-1--1-1-1--1-1-1--1-------------------|

G|---------------------------------------------------------|
D|---------------------------------------------------------|
A|---------------------------------------------------------|
E|-0--0-0-0--0-0-0--0-0-0--0-0-0--0-0-0--0-0-0--0-0-0--0-0-|
B|---------------------------------------------------------|
 |
G|---------------------------------------------|
D|---------------------------------------------|
A|------------------------------3\----5--5-4-3-|
E|---------------------------3-----5-----------|
B|-1--1-1-1--1-1-1--1-1-1--1-------------------|

G|-----------------------------------------------------------------|
D|-----------------------------------------------------------------|
A|-----------------------------------------------------------------|
E|---------------------------------5-5-5-5-5-5-5-5-5-5-5-5-5-5-5-5-|
B|-3-3-3-3-3-3-3-3-3-3-3-3-3-3-3-3---------------------------------|
 |
G|---------------------------------|
D|---------------------------------|
A|---------------------------------|
E|-7-7-7-7-7-7-7-7-2-0-2-3-2-0-2-3-|
B|---------------------------------|

G|-----------------------------------------------------------------|
D|-----------------------------------------------------------------|
A|-5-5-5-5-5-5-5-5-5-5-5-5-5-5-5-5---------------------------------|
E|---------------------------------5-5-5-5-5-5-5-5-5-5-5-5-5-5-5-5-|
B|-----------------------------------------------------------------|
 |
G|---------------------------------|
D|---------------------------------|
A|---------------------------------|
E|-7-7-7-7-7-7-7-7-2-0-2-3-2-0-2-3-|
B|---------------------------------|

G|-----------------------------------------------------------------|
D|-----------------------------------------------------------------|
A|-----------------------------------------------------------------|
E|-7-7-7-7-7-7-7-7-7-7-7-7-7-7-7-7-5-5-5-5-5-5-5-5-2-0-2-3-2-0-2-3-|
B|-----------------------------------------------------------------|

G|---------------------------------|
D|---------------------------------|
A|---------------------------------|
E|-0-0-0-0-0-0-0-0-0-0-0-0-0-0-0-0-|
B|---------------------------------|

G|-----------------|
D|-----------------|
A|-----------------| x4
E|-2-0-2-3-2-0-2-3-|
B|-----------------|

G|---------------------------------|
D|---------------------------------|
A|---------------------------------| x15
E|-----5---7\5---5---7\5---5---8\5-|
B|-0-0---0-----0---0-----0---0-----|

G|---------------------------------|
D|---------------------------------|
A|---------------------------------| x4
E|-----5---7\5---5---8-8-8-8-8-8-8-|
B|-0-0---0-----0---0---------------|

Guitar solo - James Hetfield

G|---------------------------------|
D|---------------------------------|
A|---------------------------------| x4
E|-----5---7\5---5---7\5---5---8\5-|
B|-0-0---0-----0---0-----0---0-----|

G|------------------------|
D|------------------------|
A|------------------------|
E|------------------------|
B|-3b4-0--0-0-0--0-0--0-0-|
 |
G|------------------------|
D|------------------------|
A|------------------------| x3
E|------------------------|
B|-3b4-0--0-0-0--0--0-0-0-|

G|-----------------------------------------------------------------|
D|-----------------------------------------------------------------|
A|-----------------------------------------------------------------|
E|---------------------------------5-5-5-5-5-5-5-5-5-5-5-5-5-5-5-5-|
B|-3-3-3-3-3-3-3-3-3-3-3-3-3-3-3-3---------------------------------|

Guitar solo - Kirk Hammett

G|---------------------------------|
D|---------------------------------|
A|---------------------------------| x4
E|-----5---7\5---5---7\5---5---8\5-|
B|-0-0---0-----0---0-----0---0-----|

G|------------------------|
D|------------------------|
A|------------------------| x4
E|------------------------|
B|-3b4-0--0-0-0--0--0-0-0-|

G|--------------------------------------------------|
D|--------------------------------------------------|
A|--------------------------------------------------|
E|-10-10-10-10-10-10-10-10-10-10-10-10-10-10-10-10\-|
B|--------------------------------------------------|
 |
G|---------------------------------|
D|---------------------------------|
A|---------------------------------|
E|-5-5-5-5-5-5-5-5-5-5-5-5-5-5-5-5-|
B|---------------------------------|

G|---------------------------------|-------------------------------|
D|-----------------5---------------|-----------------5-------------|
A|-2-0-2-3-2-0-2-3---3-2-0-2-3-2-0-|-2-0-2-3-2-0-2-3---3-2-0-2-3-2-|
E|---------------------------------|-------------------------------|
B|---------------------------------|-------------------------------|

G|---------------------------------|-------------------------------|
D|---------------------------------|-------------------------------|
A|-----------------5---------------|-----------------5-------------|
E|-2-0-2-3-2-0-2-3---3-2-0-2-3-2-0-|-2-0-2-3-2-0-2-3---3-2-0-2-3-2-|
B|---------------------------------|-------------------------------|

G|---------------------------------|-------------------------------|
D|-----------------5---------------|-----------------5-------------|
A|-2-0-2-3-2-0-2-3---3-2-0-2-3-2-0-|-2-0-2-3-2-0-2-3---3-2-0-2-3-2-|
E|---------------------------------|-------------------------------|
B|---------------------------------|-------------------------------|

G|---------------------------------|-------------------------------|
D|-----------------7---------------|-----------------7-------------|
A|-4-2-4-5-4-2-4-5---5-4-2-4-5-4-2-|-4-2-4-5-4-2-4-5---5-4-2-4-5-4-|
E|---------------------------------|-------------------------------|
B|---------------------------------|-------------------------------|

G|---------------|---------------|-------|-------|---------|-----------|
D|---------------|---------------|-------|-------|---------|-----------|
A|-6-4-6-7-6-4-6-|-7-5-7-8-7-5-7-|-8-7-8-|-9-8-9-|-10-9-10-|-11-10-11\-|
E|---------------|---------------|-------|-------|---------|-----------|
B|---------------|---------------|-------|-------|---------|-----------|

G|-------------------------------------------|
D|-------------------------------------------|
A|-----------------------------------------6-|
E|-------------------------------------5-6---|
B|-5-5-5-5-5-5-6-6-6-6-6-6-7-7-7-7-7-7-------|

G|----------------------------|
D|----------------------------|
A|----------------------------| x4
E|----------------------------|
B|-3/4\3-0--0-0-0-0-0-0-0-0-0-|

G|---------------------------------------------------------------|
D|---------------------------------------------------------------|
A|---------------------------------------------------------------|
E|---------------------------------5-5-5-5-5-5-5-5-5-5-5-5-5-5-5-|
B|-3-3-3-3-3-3-3-3-3-3-3-3-3-3-3-3-------------------------------|

G|--------------------|
D|--------------------|
A|-8-7----5-------5---| x4
E|------7----7-6----5-|
B|--------------------|

G|------|
D|------|
A|------| x4
E|------|
B|-5-5\-|

G|--------------------|
D|--------------------|
A|-8-7----5-------5---| x3
E|------7----7-6----5-|
B|--------------------|

G|--------------------|
D|--------------------|
A|-8-7----5-----------|
E|------7----7-6------|
B|----------------7-6-|

Outro

G|---------------------------|-------------------|
D|---------------------------|-------------------|
A|---------------------------|-------------------| x2
E|-----------------3\2---3\2-|-------------------|
B|-2-2-0-2--0-2--2-----2-----|-2-2-0-2--0-2--0-2-|

G|---------------------------------|
D|---------------------------------|
A|---------------------------------| x15
E|-----------------3\2---2\1---1-0-|
B|-2-2-0-2--0-2--2-----2-----2-----|

Legend
------
| / = slide up
| \ = slide down
| b = bend
2 comments total.
+2 reply
slipknot_4_life wrote on May 24 2010, 04:06 am

Damn good job man 5 stars

-1 reply
NejiHyuga900 wrote on January 15 2012, 10:09 am

Since you made it like it is in Guitar Hero: Metallica, I will give you 5 stars (since it would be a way on how I would tab bass).

I want to post or [tab]
guest
You may want to rate the tab now too:
select rating
Please do not post tabs as comments. Select "correction" instead!