Oops, an error
Loading. Please wait.

Sweet Amber Tab

ver7
ver7
More versions @911Tabs.com
546 views 1 this week
no commentswrite comment
1 2 3 4 5
please rate
Autoscroll
+/-
esc
set tempo
stop
Contributor
Difficulty
Tuning
novice
C G C F A D
Hey! There's an official Ultimate Guitar app which is ideal
for learning songs when you're away from computer. Get the app
WARNING: You are trying to view
                                    content from Ultimate-Guitar.com
                                    in an unauthorized application,
                                    which is prohibited.

                                    Please use an official Ultimate
                                    Guitar Tabs application for iPhone,
                                    iPad or Android to access legitimate
                                    chords, guitar, bass, and drum tabs
                                    from Ultimate-Guitar.com database.

                                    Type "ultimate guitar tabs" in Apple
                                    App Store's or Android Market's
                                    search to find the application.
Sweet Amber
Metallica
St. Anger (2003)

1=C
2=G
3=C
4=F
5=A
6=D

Key
b = Bend
r = Release Bend
. = Palm Muted
h = Hammer On
~ = Vibrato

Intro (Clean)
D-------------------------------| x3
A-------------------------------|
F-------------------------------|
C-----------------15b-r---------|
G--15b-17---15-17---------------|
C-------------------------------|

D-------------------------------|
A-------------------------------|
F-------------------------------|
C-------------------------------|
G--15b-17-----------------------|
C-------------------------------|

Main Riff (Distorted)
D--------------------------------------|
A--------------------------------------|
F--------------------------------------|
C---------------3-5--------------------|
G---0---0-0-----3-5----------3h5--8br--|
C---0---0-0---0-----0--000-------------|
    .   . .   .     .  ...

D------------------------------------|
A------------------------------------|
F------------------------------------|
C------------3-5---------------------|
G------0-0---3-5-----------3h5--8br--|
C------0-0--------0--000-------------|
       . .        .  ...

D------------------------------------|
A------------------------------------|
F------------------------------------|
C------------3-5---------------------|
G------0-0---3-5-----------3h5--8br--|
C------0-0--------0--000-------------|
       . .        .  ...

D------------------------------------------|
A------------------------------------------|
F------------------------------------------|
C------------3-5---------------------------|
G------0-0---3-5---------------------------|
C------0-0--------0--000--0-0--000-0-0-000-|
       . .        .  ...  . .  ... . . ...


D------------------------------------|
A------------------------------------|
F------------------------------------|
C------------3-5---------------------|
G------0-0---3-5-----------3h5--8br--|
C------0-0--------0--000-------------|
       . .        .  ...


D------------------------------------|
A------------------------------------|
F------------------------------------|
C------------3-5---------------------|
G------0-0---3-5-----------3h5--8br--|
C------0-0--------0--000-------------|
       . .        .  ...


D------------------------------------|
A------------------------------------|
F------------------------------------|
C------------3-5---------------------|
G------0-0---3-5-----------3h5--8br--|
C------0-0--------0--000-------------|
       . .        .  ...


D------------------------------------------|
A------------------------------------------|
F------------------------------------------|
C------------3-5---------------------------|
G------0-0---3-5---------------------------|
C------0-0--------0--000--0-0--000-0-0-000-|
       . .        .  ...  . .  ... . . ...

D------------------------------------|
A------------------------------------|
F------------------------------------|
C------------3-5---------------------|
G------0-0---3-5-----------3h5--8br--|
C------0-0--------0--000-------------|
       . .        .  ...


D------------------------------------|
A------------------------------------|
F------------------------------------|
C------------3-5---------------------|
G------0-0---3-5-----------3h5--8br--|
C------0-0--------0--000-------------|
       . .        .  ...


D------------------------------------|
A------------------------------------|
F------------------------------------|
C------------3-5---------------------|
G------0-0---3-5-----------3h5--8br--|
C------0-0--------0--000-------------|
       . .        .  ...


D------------------------------------------|
A------------------------------------------|
F------------------------------------------|
C------------3-5---------------------------|
G------0-0---3-5---------------------------|
C------0-0--------0--000--0-0--000-0-0-000-|
       . .        .  ...  . .  ... . . ...

D------------------------------------|
A------------------------------------|
F------------------------------------|
C------------3-5---------------------|
G------0-0---3-5-----------3h5--8br--|
C------0-0--------0--000-------------|
       . .        .  ...


D------------------------------------|
A------------------------------------|
F------------------------------------|
C------------3-5---------------------|
G------0-0---3-5-----------3h5--8br--|
C------0-0--------0--000-------------|
       . .        .  ...


D------------------------------------|
A------------------------------------|
F------------------------------------|
C------------3-5---------------------|
G------0-0---3-5-----------3h5--8br--|
C------0-0--------0--000-------------|
       . .        .  ...


D------------------------------------------|
A------------------------------------------|
F------------------------------------------|
C------------3-5---------------------------|
G------0-0---3-5---------------------------|
C------0-0--------0--000--0-0--000-0-0-000-|
       . .        .  ...  . .  ... . . ...

Guitar 1 Continues playing that riff while Guitar 2 Plays this

D-------------------------------------------| Until Chorus
A-------------------------------------------|
F-------------------------------------------|
C--------------------------------15b-r--15--|
G----------15-17-----------15-17---------17-|
C-----------------0--000--------------------|
                  .  ...

Chorus
She holds my hand, and I lie to get a smile
D----------------|
A----------------|
F----------------|
C---7---5--3--2--|
G---5---3--1--0--|
C----------------|

D-------------------------------| x2
A-------------------------------|
F-------------------------------|
C-------------------------------|
G---0--00--00----3-3-3-2-2-2-2--|
C---0--00--00----3-3-3-2-2-2-2--|
    .  ..  ..    . . . . . . .

D----------------|
A----------------|
F----------------|
C---7---5--3--2--|
G---5---3--1--0--|
C----------------|

D-------------------------------| x4
A-------------------------------|
F-------------------------------|
C-------------------------------|
G---0--00--00----3-3-3-2-2-2-2--|
C---0--00--00----3-3-3-2-2-2-2--|
    .  ..  ..    . . . . . . .

  Ooh, Sweet Amber
D------------------|
A------------------|
F------------------|
C---7---5----4-3-2-|
G---5---3----2-1-0-|
C------------------|

D------------------------|
A------------------------|
F------------------------|
C------------------------|
G---0-0-0-3-5--0-0-4h5-0-|
C---0-0-0-3-5--0-0-4h5-0-|
    . . .      . . . . .

D------------------------|x3
A------------------------|
F------------------------|
C------------------------|
G--00-0-0-3-5--0-0-4h5-0-|
C--00-0-0-3-5--0-0-4h5-0-|
   .. . .      . . . . .

Main Riff (Distorted)
D--------------------------------------|
A--------------------------------------|
F--------------------------------------|
C---------------3-5--------------------|
G---0---0-0-----3-5----------3h5--8br--|
C---0---0-0---0-----0--000-------------|
    .   . .   .     .  ...

D------------------------------------|
A------------------------------------|
F------------------------------------|
C------------3-5---------------------|
G------0-0---3-5-----------3h5--8br--|
C------0-0--------0--000-------------|
       . .        .  ...

D------------------------------------|
A------------------------------------|
F------------------------------------|
C------------3-5---------------------|
G------0-0---3-5-----------3h5--8br--|
C------0-0--------0--000-------------|
       . .        .  ...

D------------------------------------------|
A------------------------------------------|
F------------------------------------------|
C------------3-5---------------------------|
G------0-0---3-5---------------------------|
C------0-0--------0--000--0-0--000-0-0-000-|
       . .        .  ...  . .  ... . . ...

Main Riff (Distorted)
D--------------------------------------|
A--------------------------------------|
F--------------------------------------|
C---------------3-5--------------------|
G---0---0-0-----3-5----------3h5--8br--|
C---0---0-0---0-----0--000-------------|
    .   . .   .     .  ...

D------------------------------------|
A------------------------------------|
F------------------------------------|
C------------3-5---------------------|
G------0-0---3-5-----------3h5--8br--|
C------0-0--------0--000-------------|
       . .        .  ...

D------------------------------------|
A------------------------------------|
F------------------------------------|
C------------3-5---------------------|
G------0-0---3-5-----------3h5--8br--|
C------0-0--------0--000-------------|
       . .        .  ...

D------------------------------------------|
A------------------------------------------|
F------------------------------------------|
C------------3-5---------------------------|
G------0-0---3-5---------------------------|
C------0-0--------0--000--0-0--000-0-0-000-|
       . .        .  ...  . .  ... . . ...

D-------------------------------------------| Until Chorus
A-------------------------------------------|
F-------------------------------------------|
C--------------------------------15b-r--15--|
G----------15-17-----------15-17---------17-|
C-----------------0--000--------------------|

Chorus
She holds my hand, and I lie to get a smile
D----------------|
A----------------|
F----------------|
C---7---5--3--2--|
G---5---3--1--0--|
C----------------|

D-------------------------------| x2
A-------------------------------|
F-------------------------------|
C-------------------------------|
G---0--00--00----3-3-3-2-2-2-2--|
C---0--00--00----3-3-3-2-2-2-2--|
    .  ..  ..    . . . . . . .

D----------------|
A----------------|
F----------------|
C---7---5--3--2--|
G---5---3--1--0--|
C----------------|

D-------------------------------| x4
A-------------------------------|
F-------------------------------|
C-------------------------------|
G---0--00--00----3-3-3-2-2-2-2--|
C---0--00--00----3-3-3-2-2-2-2--|
    .  ..  ..    . . . . . . .

  Ooh, Sweet Amber
D------------------|
A------------------|
F------------------|
C---7---5----4-3-2-|
G---5---3----2-1-0-|
C------------------|

D------------------------|
A------------------------|
F------------------------|
C------------------------|
G---0-0-0-3-5--0-0-4h5-0-|
C---0-0-0-3-5--0-0-4h5-0-|
    . . .      . . . . .

D------------------------|x3
A------------------------|
F------------------------|
C------------------------|
G--00-0-0-3-5--0-0-4h5-0-|
C--00-0-0-3-5--0-0-4h5-0-|
   .. . .      . . . . .

D---------------|x3
A---------------|
F---------------|
C---------------|
G-5-------------|
C---0-0-0-0-0-0-|
    . . . . . .

D------|
A------|
F------|
C------|
G-8-7--|
C------|

D---------------|x2
A---------------|
F---------------|
C---------------|
G-7-------------|
C---0-0-0-0-0-0-|
    . . . . . .

D---------------------------|
A---------------------------|
F---------------------------|
C---------------------------|
G--12-12-12-12-12-12-13-12~-|
C---------------------------|
    . . . . . .

  Ooh, Sweet Amber
D------------------|
A------------------|
F------------------|
C---7---5----4-3-2-|
G---5---3----2-1-0-|
C------------------|

D------------------------------------------------------------|
A------------------------------------------------------------|
F------------------------------------------------------------|
C------------------------------------------------------------|
G--0-0-2-0-0-0-2-0-0-0-2-0-3--2--2-2-3-2-2-2-3-2-2-2-7--8--7-|
C--0-0-2-0-0-0-2-0-0-0-2-0-3--2--2-2-3-2-2-2-3-2-2-2-7--8--7-|
   . . . . . . . . . . . . .  .  . . . . . . . . . . .  .  .

  Ooh, Sweet Amber
D------------------|
A------------------|
F------------------|
C---7---5----4-3-2-|
G---5---3----2-1-0-|
C------------------|

D------------------------|
A------------------------|
F------------------------|
C------------------------|
G---0-0-0-3-5--0-0-4h5-0-|
C---0-0-0-3-5--0-0-4h5-0-|
    . . .      . . . . .

D------------------------|x3
A------------------------|
F------------------------|
C------------------------|
G--00-0-0-3-5--0-0-4h5-0-|
C--00-0-0-3-5--0-0-4h5-0-|
   .. . .      . . . . .

Main Riff (Distorted)
D--------------------------------------|
A--------------------------------------|
F--------------------------------------|
C---------------3-5--------------------|
G---0---0-0-----3-5----------3h5--8br--|
C---0---0-0---0-----0--000-------------|
    .   . .   .     .  ...

D------------------------------------|
A------------------------------------|
F------------------------------------|
C------------3-5---------------------|
G------0-0---3-5-----------3h5--8br--|
C------0-0--------0--000-------------|
       . .        .  ...

D------------------------------------|
A------------------------------------|
F------------------------------------|
C------------3-5---------------------|
G------0-0---3-5-----------3h5--8br--|

It's never as sweet as it seems
D---------------------|
A---------------------|
F---------------------|
C---6-5-3--6-5-3--0---|
G---6-5-3--6-5-3--0---|
    . . .  . . .  .
comments
We did not receive enough feedback on this tab! Please rate:
print report bad tab
1 2 3 4 5
I want to post or [tab]
guest
You may want to rate the tab now too:
select rating
Please do not post tabs as comments. Select "correction" instead!