Oops, an error
Loading. Please wait.

That Was Just Your Life Bass Tab

ver3
ver3
More versions @911Tabs.com
335 views 3 this week
no commentswrite comment
1 2 3 4 5
excellent!
x 1
Autoscroll
+/-
esc
set tempo
stop
Contributor
Difficulty
intermediate
WARNING: You are trying to view
                                    content from Ultimate-Guitar.com
                                    in an unauthorized application,
                                    which is prohibited.

                                    Please use an official Ultimate
                                    Guitar Tabs application for iPhone,
                                    iPad or Android to access legitimate
                                    chords, guitar, bass, and drum tabs
                                    from Ultimate-Guitar.com database.

                                    Type "ultimate guitar tabs" in Apple
                                    App Store's or Android Market's
                                    search to find the application.
-------------------------------------------------------------------------------
                             That Was Just Your Life - Metallica
-------------------------------------------------------------------------------

Tabbed by:Metallicadmrtl 
Tuning:Standard 5-string

hey guys back again im gonna be doin the whole DM album master bass so look 
forward for that!! but otherwise ill be working on some st anger! see later folks \m/

                              Master Bass Link

                  http://www.youtube.com/watch?v=7Jr1ReDTqMk


G|----------------|    |--------------------|    |---|
D|---3/5----------|    |--------------------|    |---|
A|-------7\-------| x4 |--------------------| x4 |---|
E|-0---------0-1--|    |-0--0-0-0-0---0-0-1-|    |-0-|
B|----------------|    |--------------------|    |---|

G|---------------------------------------------|
D|---------------------------------------------|
A|-1-1-1-1---------------7-----1-1-1-1---------|
E|----------1-1-1-3-0-6/---\6----------1-1-1-3-|
B|---------------------------------------------|

G|-------------------|    |---| |-----|    |---------|
D|-------------------|    |---| |-----|    |---------|
A|-----7------7--1---| x2 |---| |-----| x3 |---------|
E|-0/6----0/6------1-|    |-0-| |-000-|    |-0---15\-|
B|-------------------|    |---| |-----|    |---------|

G|--------------------------------------------------------------------|
D|--------------------------------------------------------------------|
A|---------7----------------7----------------7------------------------| x2
E|-000-5-6---6-5-6--000-5-6---6-5-6--000-5-6---6-5-6--5-3-5-6-5-3-2-1-|
B|--------------------------------------------------------------------|

G|---------------------------------|
D|---------------------------------|
A|-------7--------7--------7\--1---| x2
E|-0-5-6----0-5-6----0-5-6-------1-|
B|---------------------------------|

G|--------------------------------------------------------------------|
D|--------------------------------------------------------------------|
A|---------7----------------7----------------7------------------------|
E|-000-5-6---6-5-6--000-5-6---6-5-6--000-5-6---6-5-6--5-3-5-6-5-3-2-1-|
B|--------------------------------------------------------------------|

G|--------------------------------------------------------------------|
D|--------------------------------------------------------------------|
A|---------7----------------7----------------7--------3---------------|
E|-000-5-6---6-5-6--000-5-6---6-5-6--000-5-6---6-5-6----0-0-0-1-0-0-0-|
B|--------------------------------------------------------------------|

G|--------------------------------------------------------------------|
D|--------------------------------------------------------------------|
A|---------7----------------7----------------7------------------------|
E|-000-5-6---6-5-6--000-5-6---6-5-6--000-5-6---6-5-6--5-3-5-6-5-3-2-1-|
B|--------------------------------------------------------------------|

G|--------------------------------------------------------------------|
D|--------------------------------------------------------------------|
A|---------7----------------7----------------7--------3---------------|
E|-000-5-6---6-5-6--000-5-6---6-5-6--000-5-6---6-5-6----0-0-0-1-0-0-0-|
B|--------------------------------------------------------------------|

G|---------------------------------|
D|---------------------------------|
A|-------7--------7--------7\--1---|
E|-0-5-6----0-5-6----0-5-6-------1-|
B|---------------------------------|

G|--------------------------------------------------------|
D|--------------------------------------------------------|
A|--------------------------------------------------------| x3
E|----------------------------------------5-3-5-6-5-3-2-1-|
B|-5--5--5--5-3-5--5--5--5-3-5--5--5--5-3-----------------|

G|-------------------------------------------|
D|-------------------------------------------|
A|---------------------------3---------------|
E|-0-0-1-1----0-1-1----0-1-1---0-0-0-1-0-0-0-|
B|-------------------------------------------|

G|--------------------------------------------------------------|
D|--------------------------------------------------------------|
A|-777-7-7-7-7--------------------------------------------------|
E|-------------6-6-5-5-555-5-5-3-3-1-1-111-1-1-1-1-1-0--0--0--0-|
B|--------------------------------------------------------------|

G|---------------------------------------------------------------|
D|---------------------------------------------------------------|
A|-777-7-7-7-7-------------------------------------3-3--3--3--3/-|
E|-------------6-6-5-5-555-5-5-3-3-1-1-111-1-1-1-1---------------|
B|---------------------------------------------------------------|

G|--------------------------------------------------------------|
D|--------------------------------------------------------------|
A|-777-7-7-7-7-------------------------------------5-5--5--5--5-|
E|-------------6-6-5-5-555-5-5-3-3-1-1-111-1-1-1-1--------------|
B|--------------------------------------------------------------|

G|---------------------------------------------------|
D|---------------------------------------------------|
A|-777-7-7-7-7-------------------------------------*-|
E|-------------6-6-5-5-555-5-5-3-3-1-1-111-1-1-1-1-0-|
B|---------------------------------------------------|

G|--------------------------------------------------------------------|
D|--------------------------------------------------------------------|
A|---------7----------------7----------------7------------------------| x2
E|-000-5-6---6-5-6--000-5-6---6-5-6--000-5-6---6-5-6--5-3-5-6-5-3-2-1-|
B|--------------------------------------------------------------------|

G|---------------------------------|
D|---------------------------------|
A|-------7--------7--------7\--1---|
E|-0-5-6----0-5-6----0-5-6-------1-|
B|---------------------------------|

G|--------------------------------------------------------------------|
D|--------------------------------------------------------------------|
A|---------7----------------7----------------7------------------------|
E|-000-5-6---6-5-6--000-5-6---6-5-6--000-5-6---6-5-6--5-3-5-6-5-3-2-1-|
B|--------------------------------------------------------------------|

G|--------------------------------------------------------------------|
D|--------------------------------------------------------------------|
A|---------7----------------7----------------7--------3---------------|
E|-000-5-6---6-5-6--000-5-6---6-5-6--000-5-6---6-5-6----0-0-0-1-0-0-0-|
B|--------------------------------------------------------------------|

G|--------------------------------------------------------------------|
D|--------------------------------------------------------------------|
A|---------7----------------7----------------7------------------------|
E|-000-5-6---6-5-6--000-5-6---6-5-6--000-5-6---6-5-6--5-3-5-6-5-3-2-1-|
B|--------------------------------------------------------------------|

G|--------------------------------------------------------------------|
D|--------------------------------------------------------------------|
A|---------7----------------7----------------7--------3---------------|
E|-000-5-6---6-5-6--000-5-6---6-5-6--000-5-6---6-5-6----0-0-0-1-0-0-0-|
B|--------------------------------------------------------------------|

G|---------------------------------|
D|---------------------------------|
A|-------7--------7--------7\--1---|
E|-0-5-6----0-5-6----0-5-6-------1-|
B|---------------------------------|

G|--------------------------------------------------------|
D|--------------------------------------------------------|
A|--------------------------------------------------------| x3
E|----------------------------------------5-3-5-6-5-3-2-1-|
B|-5--5--5--5-3-5--5--5--5-3-5--5--5--5-3-----------------|

G|--------------------------------------------|
D|--------------------------------------------|
A|---------------------------33---------------|
E|-0-0-1-1----0-1-1----0-1-1----0-0-0-1-0-0-0-|
B|--------------------------------------------|

G|--------------------------------------------------------------|
D|--------------------------------------------------------------|
A|-777-7-7-7-7--------------------------------------------------|
E|-------------6-6-5-5-555-5-5-3-3-1-1-111-1-1-1-1-1-0--0--0--0-|
B|--------------------------------------------------------------|

G|--------------------------------------------------------------|
D|--------------------------------------------------------------|
A|-777-7-7-7-7-------------------------------------3-3--3--3--3-|
E|-------------6-6-5-5-555-5-5-3-3-1-1-111-1-1-1-1--------------|
B|--------------------------------------------------------------|

G|---------------------------------------------------------------|
D|---------------------------------------------------------------|
A|-777-7-7-7-7-------------------------------------5-5--5--5--5/-|
E|-------------6-6-5-5-555-5-5-3-3-1-1-111-1-1-1-1---------------|
B|---------------------------------------------------------------|

G|---------------------------------------------------|
D|---------------------------------------------------|
A|-777-7-7-7-7-------------------------------------*-|
E|-------------6-6-5-5-555-5-5-3-3-1-1-111-1-1-1-1-0-|
B|---------------------------------------------------|

G|--------------------|    |---------------------------|
D|--------------------|    |---------------------------|
A|--------------------| x4 |---------------------------| x4
E|--------------------|    |---------------------------|
B|-5\---5--5--5--5--3-|    |-5\-x-x-5-5--5--5--5--5--3-|

G|-----------------------------------------------------------------|
D|-----------------------------------------------------------------|
A|-----------------------------------------------------------------|
E|-000-0-0-0-0-0-0-000-0-0-0-0-0-0-000-0-0-0-0-0-0-000-000-000-000-|
B|-----------------------------------------------------------------|

G|-----------------------------------------------------------------|
D|-----------------------------------------------------------------|
A|-7-7-7-7-7-7-----------------------------------------------------|
E|-------------6-6-5-5-5-5-5-5-3-3-1-1-1-1-1-1-1-1-0-0-0-0-0-0-0-0-|
B|-----------------------------------------------------------------|

G|------------------------------------------------------------------|
D|------------------------------------------------------------------|
A|-7-7-7-7-7-7-------------------------------------3-3-3-3-3-3-3-3/-|
E|-------------6-6-5-5-5-5-5-5-3-3-1-1-1-1-1-1-1-1------------------|
B|------------------------------------------------------------------|

G|-----------------------------------------------------------------|
D|-----------------------------------------------------------------|
A|-7-7-7-7-7-7-------------------------------------5-5-5-5-5-5-5-5-|
E|-------------6-6-5-5-5-5-5-5-3-3-1-1-1-1-1-1-1-1-----------------|
B|-----------------------------------------------------------------|

G|---------------------------------------------------|
D|---------------------------------------------------|
A|-7-7-7-7-7-7-------------------------------------*-|
E|-------------6-6-5-5-5-5-5-5-3-3-1-1-1-1-1-1-1-1-0-|
B|---------------------------------------------------|

G|--------------------------------------------------------------------|
D|--------------------------------------------------------------------|
A|---------7----------------7----------------7------------------------|
E|-000-5-6---6-5-6--000-5-6---6-5-6--000-5-6---6-5-6--5-3-5-6-5-3-2-1-|
B|--------------------------------------------------------------------|

G|--------------------------------------------------------------------|
D|--------------------------------------------------------------------|
A|---------7----------------7----------------7--------3---------------|
E|-000-5-6---6-5-6--000-5-6---6-5-6--000-5-6---6-5-6----0-0-0-1-0-0-0-|
B|--------------------------------------------------------------------|

G|--------------------------------------------------------------------|
D|--------------------------------------------------------------------|
A|---------7----------------7----------------7------------------------|
E|-000-5-6---6-5-6--000-5-6---6-5-6--000-5-6---6-5-6--5-3-5-6-5-3-2-1-|
B|--------------------------------------------------------------------|

G|--------------------------------------------------------------------|
D|--------------------------------------------------------------------|
A|---------7----------------7----------------7--------3---------------|
E|-000-5-6---6-5-6--000-5-6---6-5-6--000-5-6---6-5-6----0-0-0-1-0-0-0-|
B|--------------------------------------------------------------------|

G|-------------------| |--------------------|   
D|-------------------| |--------------------|
A|-------------------| |--------------------| x3
E|-*-----------------| |--------------------|    
B|-5---5--5--5--5--3-| |-5\---5--5--5--5--3-|    

G|-----------------------------------------------------------------|
D|-----------------------------------------------------------------|
A|-----------------------------------------------------------------|
E|-000-0-0-0-0-0-0-000-0-0-0-0-0-0-000-0-0-0-0-0-0-000-000-000-000-|
B|-----------------------------------------------------------------|

G|--------------------------------|
D|--------------------------------|
A|-------7--------7--------7--(7)-|
E|-0-5-6----0-5-6----0-5-6--------|
B|--------------------------------|

G|-----------------------------------------------------------------|
D|-----------------------------------------------------------------|
A|---------------------------------2-2-2-2-2-2-2-2/5-5-5-5-5-5-5---|
E|-0-0-0-0-0-0-0-0-3-3-3-3-3-3-3-3-------------------------------0-|
B|-----------------------------------------------------------------|

G|-----------------------------------------------------------------|
D|-----------------------------------------------------------------|
A|-----------------2-2-2-2-2-2-2-2-----------------5-5-5-5-5-5-5-5-|
E|-3-3-3-3-3-3-3-3-----------------5-5-5-5-5-5-5-5-----------------|
B|-----------------------------------------------------------------|

G|---------------------------------------------------------------|
D|---------------------------------------------------------------|
A|-------------------------------2-2-2-2-2-2-2-2/5-5-5-5-5-5-5---|
E|-000-0-0-0-0-0-3-3-3-3-3-3-3-3-------------------------------0-|
B|---------------------------------------------------------------|

G|-----------------------------------------------------------------|
D|-----------------------------------------------------------------|
A|-----------------2-2-2-2-2-2-2-2-----------------5-5-5-5-5-5-5-5-|
E|-3-3-3-3-3-3-3-3-----------------5-5-5-5-5-5-5-5-----------------|
B|-----------------------------------------------------------------|

G|-------------------| |--------------------|   
D|-------------------| |--------------------|
A|-------------------| |--------------------| x3
E|-*-----------------| |--------------------|    
B|-5---5--5--5--5--3-| |-5\---5--5--5--5--3-|    

G|-----------------------------------------------------------------|
D|-----------------------------------------------------------------|
A|-----------------------------------------------------------------|
E|-000-0-0-0-0-0-0-000-0-0-0-0-0-0-000-0-0-0-0-0-0-000-000-000-000-|
B|-----------------------------------------------------------------|

G|--------------------------------------------------------------------|
D|--------------------------------------------------------------------|
A|---------7----------------7----------------7------------------------| x2
E|-000-5-6---6-5-6--000-5-6---6-5-6--000-5-6---6-5-6--5-3-5-6-5-3-2-1-|
B|--------------------------------------------------------------------|

G|-----------------------------------------------------------------|
D|-----------------------------------------------------------------|
A|-7-7-7-7-7-7-----------------------------------------------------|
E|-------------6-6-5-5-5-5-5-5-3-3-1-1-1-1-1-1-1-1-0-0-0-0-0-0-0-0-|
B|-----------------------------------------------------------------|

G|------------------------------------------------------------------|
D|------------------------------------------------------------------|
A|-7-7-7-7-7-7-------------------------------------1-1-1-1-1-1-1-1/-|
E|-------------6-6-5-5-5-5-5-5-3-3-1-1-1-1-1-1-1-1------------------|
B|------------------------------------------------------------------|

G|------------------------------------------------------------------|
D|------------------------------------------------------------------|
A|-7-7-7-7-7-7-------------------------------------3-3-3-3-3-3-3-3/-|
E|-------------6-6-5-5-5-5-5-5-3-3-1-1-1-1-1-1-1-1------------------|
B|------------------------------------------------------------------|

G|---------------------------------------------------|
D|-------------------------------------------------*-|
A|-7-7-7-7-7-7-------------------------------------5-|
E|-------------6-6-5-5-5-5-5-5-3-3-1-1-1-1-1-1-1-1---|
B|---------------------------------------------------|

G|----------------------------------------------------------------------|
D|----------------------------------------------------------------------|
A|---------7----------------7----------------7--------------------------|
E|-000-5-6---6-5-6--000-5-6---6-5-6--000-5-6---6-5-6--5-3-5-6-5-3-2-1---|
B|--------------------------------------------------------------------5-|

well folks that was just a easy tab, hope u enjoi very fast tad difficult but 
otherwise fun and heavy \m/

MetallicaDMRTL

                             \m/Metallica\m/
comments
We did not receive enough feedback on this tab! Please rate:
print report bad tab
1 2 3 4 5
I want to post or [tab]
guest
You may want to rate the tab now too:
select rating
Please do not post tabs as comments. Select "correction" instead!