Oops, an error
Loading. Please wait.

The Call Of Ktulu Tab

ver7
ver7
More versions @911Tabs.com
135,471 views 36 this week
11 commentsread comments
1 2 3 4 5
accurate
x 9
Autoscroll
+/-
esc
set tempo
stop
Contributor
WARNING: You are trying to view
                                    content from Ultimate-Guitar.com
                                    in an unauthorized application,
                                    which is prohibited.

                                    Please use an official Ultimate
                                    Guitar Tabs application for iPhone,
                                    iPad or Android to access legitimate
                                    chords, guitar, bass, and drum tabs
                                    from Ultimate-Guitar.com database.

                                    Type "ultimate guitar tabs" in Apple
                                    App Store's or Android Market's
                                    search to find the application.
               Metallica - The Call of Ktulu                           


***************
***************
Rythm Part:



D#||-----5--------------5-----|-----5--------------5-----|
A#||-----------6-----5-----6--|-----------6-----5-----6--|
F#||--------7-----------------|--------7-----------------|
C#||--0-----------7-----------|--0-----------7-----------|
G#||--------------------------|--------------------------|
D#||--------------------------|--------------------------|


                                                      
-----6--------------6-----|-----6--------------6-----|
-----------6-----------6--|-----------6-----------6--|
--------7--------9--------|--------7--------9--------|
--0-----------8-----------|--0-----------8-----------|
--------------------------|--------------------------|
--------------------------|--------------------------|


                                                        
-----8---------------8-----|-----8---------------8-----|
-----------8------------8--|-----------8------------8--|
--------9---------9--------|--------9---------9--------|
--0-----------10-----------|--0-----------10-----------|
---------------------------|---------------------------|
---------------------------|---------------------------|


                                                      
-----5--------------5-----|-----5--------------5-----|
-----------6-----5-----6--|-----------6-----------6--|
--------7-----------------|--------7--------7--------|
--0-----------7-----------|--0-----------7-----------|
--------------------------|--------------------------|
--------------------------|--------------------------|


                                                      
-----5--------------5-----|-----5--------------5-----|
-----------6-----5-----6--|-----------6-----5-----6--|
--------7-----------------|--------7-----------------|
--0-----------7-----------|--0-----------7-----------|
--------------------------|--------------------------|
--------------------------|--------------------------|


                                                      
-----6--------------6-----|-----6--------------6-----|
-----------6-----------6--|-----------6-----------6--|
--------7--------9--------|--------7--------9--------|
--0-----------8-----------|--0-----------8-----------|
--------------------------|--------------------------|
--------------------------|--------------------------|


                                                        
-----8---------------8-----|-----8---------------8-----|
-----------8------------8--|-----------8------------8--|
--------9---------9--------|--------9---------9--------|
--0-----------10-----------|--0-----------10-----------|
---------------------------|---------------------------|
---------------------------|---------------------------|


                                                                            
-----5--------------5-----|-------------------||---------------0-----------|
-----------6-----5-----5--|--6----------------||------------0-----0--------|
--------7-----------------|-------------------||*--------5-----------5-----|
--0-----------7-----------|--0----------------||*-----7--------------------|
--------------------------|-------------------||---0--------------------7--|
--------------------------|-------------------||---------------------------|


                           3x                            
--------------0------------||------------1-----------1--|
-----------0-----0---------||---------3-----------3-----|
--------5-----------5-----*||*-----2-----------3--------|
-----7-----------------7--*||*--0-----------0-----------|
--6------------------------||---------------------------|
---------------------------||---------------------------|


                           3x                            
-----------1-----------5---||---------------0-----------|
--------3-----------3------||------------0-----0--------|
-----4-----------5--------*||*--------5-----------5-----|
--0-----------0-----------*||*-----7--------------------|
---------------------------||---0--------------------7--|
---------------------------||---------------------------|


                           3x                            
--------------0------------||------------1-----------1--|
-----------0-----0---------||---------3-----------3-----|
--------5-----------5-----*||*-----2-----------3--------|
-----7-----------------7--*||*--0-----------0-----------|
--6------------------------||---------------------------|
---------------------------||---------------------------|


                           2x                           
-----------1-----------5---||-----------1-----------1--|
--------3-----------3------||--------3-----------3-----|
-----4-----------5--------*||-----2-----------3--------|
--0-----------0-----------*||--0-----------0-----------|
---------------------------||--------------------------|
---------------------------||--------------------------|


                                                      
-----------1-----------5--|--------------0-----------|
--------3-----------3-----|-----------0-----0--------|
-----4-----------5--------|--------5-----------5-----|
--0-----------0-----------|-----7--------------------|
--------------------------|--0--------------------7--|
--------------------------|--------------------------|


                                                      
--------------0-----------|--------------0-----------|
-----------0-----0--------|-----------0-----0--------|
--------5-----------5-----|--------5-----------5-----|
-----7-----------------7--|-----7--------------------|
--6-----------------------|--0--------------------7--|
--------------------------|--------------------------|


                                                      
--------------0-----------|--------------0-----------|
-----------0-----0--------|-----------0-----0--------|
--------5-----------5-----|--------5-----------5-----|
-----7-----------------7--|-----7--------------------|
--6-----------------------|--0--------------------7--|
--------------------------|--------------------------|


                                                      
--------------0-----------|--------------0-----------|
-----------0-----0--------|-----------0-----0--------|
--------5-----------5-----|--------5-----------5-----|
-----7-----------------7--|-----7--------------------|
--6-----------------------|--0--------------------7--|
--------------------------|--------------------------|


                                                      
--------------0-----------|-----------1-----------1--|
-----------0-----0--------|--------3-----------3-----|
--------5-----------5-----|-----2-----------3--------|
-----7-----------------7--|--0-----------0-----------|
--6-----------------------|--------------------------|
--------------------------|--------------------------|


                                                      
-----------1-----------5--|-----------1-----------1--|
--------3-----------3-----|--------3-----------3-----|
-----4-----------5--------|-----2-----------3--------|
--0-----------0-----------|--0-----------0-----------|
--------------------------|--------------------------|
--------------------------|--------------------------|


                                                      
-----------1-----------5--|-----------1-----------1--|
--------3-----------3-----|--------3-----------3-----|
-----4-----------5--------|-----2-----------3--------|
--0-----------0-----------|--0-----------0-----------|
--------------------------|--------------------------|
--------------------------|--------------------------|


                                                      
-----------1-----------5--|-----------1-----------1--|
--------3-----------3-----|--------3-----------3-----|
-----4-----------5--------|-----2-----------3--------|
--0-----------0-----------|--0-----------0-----------|
--------------------------|--------------------------|
--------------------------|--------------------------|


                                                      
-----------1-----------5--|--------------0-----------|
--------3-----------3-----|-----------0-----0--------|
-----4-----------5--------|--------5-----------5-----|
--0-----------0-----------|-----7--------------------|
--------------------------|--0--------------------7--|
--------------------------|--------------------------|


                                                      
--------------0-----------|--------------0-----------|
-----------0-----0--------|-----------0-----0--------|
--------5-----------5-----|--------5-----------5-----|
-----7-----------------7--|-----7--------------------|
--6-----------------------|--0--------------------7--|
--------------------------|--------------------------|


                                                      
--------------0-----------|--------------0-----------|
-----------0-----0--------|-----------0-----0--------|
--------5-----------5-----|--------5-----------5-----|
-----7-----------------7--|-----7--------------------|
--6-----------------------|--0--------------------7--|
--------------------------|--------------------------|


                                                      
--------------0-----------|--------------0-----------|
-----------0-----0--------|-----------0-----0--------|
--------5-----------5-----|--------5-----------5-----|
-----7-----------------7--|-----7--------------------|
--6-----------------------|--0--------------------7--|
--------------------------|--------------------------|


                                                      
--------------0-----------|-----------1-----------1--|
-----------0-----0--------|--------3-----------3-----|
--------5-----------5-----|-----2-----------3--------|
-----7-----------------7--|--0-----------0-----------|
--6-----------------------|--------------------------|
--------------------------|--------------------------|


                                                      
-----------1-----------5--|-----------1-----------1--|
--------3-----------3-----|--------3-----------3-----|
-----4-----------5--------|-----2-----------3--------|
--0-----------0-----------|--0-----------0-----------|
--------------------------|--------------------------|
--------------------------|--------------------------|


                                                      
-----------1-----------5--|-----------1-----------1--|
--------3-----------3-----|--------3-----------3-----|
-----4-----------5--------|-----2-----------3--------|
--0-----------0-----------|--0-----------0-----------|
--------------------------|--------------------------|
--------------------------|--------------------------|


                                                      
-----------1-----------5--|-----------1-----------1--|
--------3-----------3-----|--------3-----------3-----|
-----4-----------5--------|-----2-----------3--------|
--0-----------0-----------|--0-----------0-----------|
--------------------------|--------------------------|
--------------------------|--------------------------|


                                                      
-----------1-----------5--|--------------------------|
--------3-----------3-----|--------------------------|
-----4-----------5--------|--------------------------|
--0-----------0-----------|-----------5--5--5--5--9--|
--------------------------|--7--7--7--5--7--5--7--7--|
--------------------------|--5--5--5-----------------|


                                                       
---------------------------|--------------------------|
---------------------------|--------------------------|
---------------------------|--------------------------|
--8--8--8--8--8--8--9--11--|-----------5--5--5--5--9--|
--6--6--6--6--6--6--7--9---|--7--7--7--5--7--5--7--7--|
---------------------------|--5--5--5-----------------|


                                                       
---------------------------|--------------------------|
---------------------------|--------------------------|
---------------------------|--------------------------|
--8--8--8--8--8--8--9--11--|-----------5--5--5--5--9--|
--6--6--6--6--6--6--7--9---|--7--7--7--5--7--5--7--7--|
---------------------------|--5--5--5-----------------|


                                                       
---------------------------|--------------------------|
---------------------------|--------------------------|
---------------------------|--------------------------|
--8--8--8--8--8--8--9--11--|-----------5--5--5--5--9--|
--6--6--6--6--6--6--7--9---|--7--7--7--5--7--5--7--7--|
---------------------------|--5--5--5-----------------|


                                                       
---------------------------|--------------------------|
---------------------------|--------------------------|
---------------------------|--2--2--2--2--3--3--3--3--|
--8--8--8--8--8--8--9--11--|--0--0--0--0--0--0--0--0--|
--6--6--6--6--6--6--7--9---|--------------------------|
---------------------------|--------------------------|


                                                      
--------------------------|--------------------------|
--------------------------|--------------------------|
--4--4--4--4--5--5--5--5--|--2--2--2--2--3--3--3--3--|
--0--0--0--0--0--0--0--0--|--0--0--0--0--0--0--0--0--|
--------------------------|--------------------------|
--------------------------|--------------------------|


                                                      
--------------------------|--------------------------|
--------------------------|--------------------------|
--4--4--4--4--5--5--5--5--|--2--2--2--2--3--3--3--3--|
--0--0--0--0--0--0--0--0--|--0--0--0--0--0--0--0--0--|
--------------------------|--------------------------|
--------------------------|--------------------------|


                                                      
--------------------------|--------------------------|
--------------------------|--------------------------|
--4--4--4--4--5--5--5--5--|--2--2--2--2--3--3--3--3--|
--0--0--0--0--0--0--0--0--|--0--0--0--0--0--0--0--0--|
--------------------------|--------------------------|
--------------------------|--------------------------|


                                                      
--------------------------|--------------------------|
--------------------------|--------------------------|
--4--4--4--4--5--5--5--5--|--------------------------|
--0--0--0--0--0--0--0--0--|-----------5--5--5--5--9--|
--------------------------|--7--7--7--5--7--5--7--7--|
--------------------------|--5--5--5-----------------|


                                                       
---------------------------|--------------------------|
---------------------------|--------------------------|
---------------------------|--------------------------|
--8--8--8--8--8--8--9--11--|-----------5--5--5--5--9--|
--6--6--6--6--6--6--7--9---|--7--7--7--5--7--5--7--7--|
---------------------------|--5--5--5-----------------|


                                                       
---------------------------|--------------------------|
---------------------------|--------------------------|
---------------------------|--------------------------|
--8--8--8--8--8--8--9--11--|-----------5--5--5--5--9--|
--6--6--6--6--6--6--7--9---|--7--7--7--5--7--5--7--7--|
---------------------------|--5--5--5-----------------|


                                                       
---------------------------|--------------------------|
---------------------------|--------------------------|
---------------------------|--------------------------|
--8--8--8--8--8--8--9--11--|-----------5--5--5--5--9--|
--6--6--6--6--6--6--7--9---|--7--7--7--5--7--5--7--7--|
---------------------------|--5--5--5-----------------|


                                                       
---------------------------|--------------------------|
---------------------------|--------------------------|
---------------------------|--2--2--2--2--3--3--3--3--|
--8--8--8--8--8--8--9--11--|--0--0--0--0--0--0--0--0--|
--6--6--6--6--6--6--7--9---|--------------------------|
---------------------------|--------------------------|


                                                      
--------------------------|--------------------------|
--------------------------|--------------------------|
--4--4--4--4--5--5--5--5--|--2--2--2--2--3--3--3--3--|
--0--0--0--0--0--0--0--0--|--0--0--0--0--0--0--0--0--|
--------------------------|--------------------------|
--------------------------|--------------------------|


                                                      
--------------------------|--------------------------|
--------------------------|--------------------------|
--4--4--4--4--5--5--5--5--|--2--2--2--2--3--3--3--3--|
--0--0--0--0--0--0--0--0--|--0--0--0--0--0--0--0--0--|
--------------------------|--------------------------|
--------------------------|--------------------------|


                                                      
--------------------------|--------------------------|
--------------------------|--------------------------|
--4--4--4--4--5--5--5--5--|--2--2--2--2--3--3--3--3--|
--0--0--0--0--0--0--0--0--|--0--0--0--0--0--0--0--0--|
--------------------------|--------------------------|
--------------------------|--------------------------|


                                                                                
--------------------------|--------------------------|-------------------------|
--------------------------|--------------------------|-------------------------|
--4--4--4--4--5--5--5--5--|--------------------------|-------------------------|
--0--0--0--0--0--0--0--0--|--------------------------|--3----------------------|
--------------------------|--2-----------0-----2--3--|--3-----------0---2---3--|
--------------------------|--0--0--0--0-----0--------|--1--1--1--1-------------|


                                                                                
--------------------------|-------------------------|--------------------------|
--------------------------|-------------------------|--------------------------|
--------------------------|-------------------------|--------------------------|
--4-----------------------|-------------------------|--------------------------|
--4-----------0-----2--3--|--5-----------3---2------|--2-----------0-----2--3--|
--2--2--2--2-----0--------|--3--3--3--3----------3--|--0--0--0--0-----0--------|


                                                                               
-------------------------|--------------------------|-------------------------|
-------------------------|--------------------------|-------------------------|
-------------------------|--------------------------|-------------------------|
--3----------------------|--4-----------------------|-------------------------|
--3-----------0---2---3--|--4-----------0-----2--3--|--5-----------3---2------|
--1--1--1--1-------------|--2--2--2--2-----0--------|--3--3--3--3----------3--|


                                                                                
--------------------------|-------------------------|--------------------------|
--------------------------|-------------------------|--------------------------|
--------------------------|-------------------------|--------------------------|
--------------------------|--3----------------------|--4-----------------------|
--2-----------0-----2--3--|--3-----------0---2---3--|--4-----------0-----2--3--|
--0--0--0--0-----0--------|--1--1--1--1-------------|--2--2--2--2-----0--------|


                                                                               
-------------------------|--------------------------|-------------------------|
-------------------------|--------------------------|-------------------------|
-------------------------|--------------------------|-------------------------|
-------------------------|--------------------------|--3----------------------|
--5-----------3---2------|--2-----------0-----2--3--|--3-----------0---2---3--|
--3--3--3--3----------3--|--0--0--0--0-----0--------|--1--1--1--1-------------|


                                                                                
--------------------------|-------------------------|--------------------------|
--------------------------|-------------------------|--------------------------|
--------------------------|-------------------------|--------------------------|
--4-----------------------|-------------------------|--------------------------|
--4-----------0-----2--3--|--5-----------3---2------|--5-----------3-----5--6--|
--2--2--2--2-----0--------|--3--3--3--3----------3--|--3--3--3--3-----3--------|


                                                                               
-------------------------|--------------------------|-------------------------|
-------------------------|--------------------------|-------------------------|
-------------------------|--------------------------|-------------------------|
-------------------------|--------------------------|-------------------------|
--6-----------3---5---6--|--7-----------------5--6--|--8-----------6---5------|
--4--4--4--4-------------|--5--5--5--5--8--5--------|-----6--6--6----------6--|


                                                                                
--------------------------|-------------------------|--------------------------|
--------------------------|-------------------------|--------------------------|
--------------------------|-------------------------|--------------------------|
--------------------------|-------------------------|--------------------------|
--5-----------3-----5--6--|--6-----------3---5---6--|--7-----------------5--6--|
--3--3--3--3-----3--------|--4--4--4--4-------------|--5--5--5--5--8--5--------|


                                                     
-------------------------|--------------------------|
-------------------------|--------------------------|
-------------------------|--------------------------|
-------------------------|-----------5--5--5--5--9--|
--8-----------6---5------|--7--7--7--5--7--5--7--7--|
-----6--6--6----------6--|--5--5--5-----------------|


                                                       
---------------------------|--------------------------|
---------------------------|--------------------------|
---------------------------|--------------------------|
--8--8--8--8--8--8--9--11--|-----------5--5--5--5--9--|
--6--6--6--6--6--6--7--9---|--7--7--7--5--7--5--7--7--|
---------------------------|--5--5--5-----------------|


                                                       
---------------------------|--------------------------|
---------------------------|--------------------------|
---------------------------|--------------------------|
--8--8--8--8--8--8--9--11--|-----------5--5--5--5--9--|
--6--6--6--6--6--6--7--9---|--7--7--7--5--7--5--7--7--|
---------------------------|--5--5--5-----------------|


                                                       
---------------------------|--------------------------|
---------------------------|--------------------------|
---------------------------|--------------------------|
--8--8--8--8--8--8--9--11--|-----------5--5--5--5--9--|
--6--6--6--6--6--6--7--9---|--7--7--7--5--7--5--7--7--|
---------------------------|--5--5--5-----------------|


                                                       
---------------------------|--------------------------|
---------------------------|--------------------------|
---------------------------|--2--2--2--2--3--3--3--3--|
--8--8--8--8--8--8--9--11--|--0--0--0--0--0--0--0--0--|
--6--6--6--6--6--6--7--9---|--------------------------|
---------------------------|--------------------------|


                                                      
--------------------------|--------------------------|
--------------------------|--------------------------|
--4--4--4--4--5--5--5--5--|--2--2--2--2--3--3--3--3--|
--0--0--0--0--0--0--0--0--|--0--0--0--0--0--0--0--0--|
--------------------------|--------------------------|
--------------------------|--------------------------|


                                                      
--------------------------|--------------------------|
--------------------------|--------------------------|
--4--4--4--4--5--5--5--5--|--2--2--2--2--3--3--3--3--|
--0--0--0--0--0--0--0--0--|--0--0--0--0--0--0--0--0--|
--------------------------|--------------------------|
--------------------------|--------------------------|


                                                      
--------------------------|--------------------------|
--------------------------|--------------------------|
--4--4--4--4--5--5--5--5--|--2--2--2--2--3--3--3--3--|
--0--0--0--0--0--0--0--0--|--0--0--0--0--0--0--0--0--|
--------------------------|--------------------------|
--------------------------|--------------------------|


                                                      
--------------------------|--------------------------|
--------------------------|--------------------------|
--4--4--4--4--5--5--5--5--|--------------------------|
--0--0--0--0--0--0--0--0--|-----------------------9--|
--------------------------|--7--7--7--7--7--7--7--7--|
--------------------------|--5--5--5--5--5--5--5-----|


                                                       
---------------------------|--------------------------|
---------------------------|--------------------------|
---------------------------|--------------------------|
--8--8--8--8--8--8--9--11--|-----------------------9--|
--6--6--6--6--6--6--7--9---|--7--7--7--7--7--7--7--7--|
---------------------------|--5--5--5--5--5--5--5-----|


                                                       
---------------------------|--------------------------|
---------------------------|--------------------------|
---------------------------|--------------------------|
--8--8--8--8--8--8--9--11--|-----------------------9--|
--6--6--6--6--6--6--7--9---|--7--7--7--7--7--7--7--7--|
---------------------------|--5--5--5--5--5--5--5-----|


                                                       
---------------------------|--------------------------|
---------------------------|--------------------------|
---------------------------|--------------------------|
--8--8--8--8--8--8--9--11--|-----------------------9--|
--6--6--6--6--6--6--7--9---|--7--7--7--7--7--7--7--7--|
---------------------------|--5--5--5--5--5--5--5-----|


                                                       
---------------------------|--------------------------|
---------------------------|--------------------------|
---------------------------|--2--2--2--2--3--3--3--3--|
--8--8--8--8--8--8--9--11--|--0--0--0--0--0--0--0--0--|
--6--6--6--6--6--6--7--9---|--------------------------|
---------------------------|--------------------------|


                                                      
--------------------------|--------------------------|
--------------------------|--------------------------|
--4--4--4--4--5--5--5--5--|--2--2--2--2--3--3--3--3--|
--0--0--0--0--0--0--0--0--|--0--0--0--0--0--0--0--0--|
--------------------------|--------------------------|
--------------------------|--------------------------|


                                                      
--------------------------|--------------------------|
--------------------------|--------------------------|
--4--4--4--4--5--5--5--5--|--2--2--2--2--3--3--3--3--|
--0--0--0--0--0--0--0--0--|--0--0--0--0--0--0--0--0--|
--------------------------|--------------------------|
--------------------------|--------------------------|


                                                      
--------------------------|--------------------------|
--------------------------|--------------------------|
--4--4--4--4--5--5--5--5--|--2--2--2--2--3--3--3--3--|
--0--0--0--0--0--0--0--0--|--0--0--0--0--0--0--0--0--|
--------------------------|--------------------------|
--------------------------|--------------------------|


                                                      
--------------------------|--------------------------|
--------------------------|--------------------------|
--4--4--4--4--5--5--5--5--|--------------------------|
--0--0--0--0--0--0--0--0--|-----------5--5--5--5--9--|
--------------------------|--7--7--7--5--7--5--7--7--|
--------------------------|--5--5--5-----------------|


                                                       
---------------------------|--------------------------|
---------------------------|--------------------------|
---------------------------|--------------------------|
--8--8--8--8--8--8--9--11--|-----------5--5--5--5--9--|
--6--6--6--6--6--6--7--9---|--7--7--7--5--7--5--7--7--|
---------------------------|--5--5--5-----------------|


                                                       
---------------------------|--------------------------|
---------------------------|--------------------------|
---------------------------|--------------------------|
--8--8--8--8--8--8--9--11--|-----------5--5--5--5--9--|
--6--6--6--6--6--6--7--9---|--7--7--7--5--7--5--7--7--|
---------------------------|--5--5--5-----------------|


                                                       
---------------------------|--------------------------|
---------------------------|--------------------------|
---------------------------|--------------------------|
--8--8--8--8--8--8--9--11--|-----------5--5--5--5--9--|
--6--6--6--6--6--6--7--9---|--7--7--7--5--7--5--7--7--|
---------------------------|--5--5--5-----------------|


                                                       
---------------------------|--------------------------|
---------------------------|--------------------------|
---------------------------|--2--2--2--2--3--3--3--3--|
--8--8--8--8--8--8--9--11--|--0--0--0--0--0--0--0--0--|
--6--6--6--6--6--6--7--9---|--------------------------|
---------------------------|--------------------------|


                                                      
--------------------------|--------------------------|
--------------------------|--------------------------|
--4--4--4--4--5--5--5--5--|--2--2--2--2--3--3--3--3--|
--0--0--0--0--0--0--0--0--|--0--0--0--0--0--0--0--0--|
--------------------------|--------------------------|
--------------------------|--------------------------|


                                                      
--------------------------|--------------------------|
--------------------------|--------------------------|
--4--4--4--4--5--5--5--5--|--2--2--2--2--3--3--3--3--|
--0--0--0--0--0--0--0--0--|--0--0--0--0--0--0--0--0--|
--------------------------|--------------------------|
--------------------------|--------------------------|


                                                      
--------------------------|--------------------------|
--------------------------|--------------------------|
--4--4--4--4--5--5--5--5--|--2--2--2--2--3--3--3--3--|
--0--0--0--0--0--0--0--0--|--0--0--0--0--0--0--0--0--|
--------------------------|--------------------------|
--------------------------|--------------------------|


                                                                                
--------------------------|--------------------------|-------------------------|
--------------------------|--------------------------|-------------------------|
--4--4--4--4--5--5--5--5--|--------------------------|-------------------------|
--0--0--0--0--0--0--0--0--|--------------------------|-------------------------|
--------------------------|--2-----------------2--3--|--3-----------0---2---3--|
--------------------------|--0--0--0--0--5--0--------|--1--1--1--1-------------|


                                                                                
--------------------------|-------------------------|--------------------------|
--------------------------|-------------------------|--------------------------|
--------------------------|-------------------------|--------------------------|
--------------------------|-------------------------|--------------------------|
--2-----------------2--3--|--3-----------0---2---3--|--2-----------------2--3--|
--0--0--0--0--5--0--------|--1--1--1--1-------------|--0--0--0--0--5--0--------|


                                                                               
-------------------------|--------------------------|-------------------------|
-------------------------|--------------------------|-------------------------|
-------------------------|--------------------------|-------------------------|
-------------------------|--------------------------|-------------------------|
--3-----------0---2---3--|--2-----------------2--3--|--3-----------0---2---3--|
--1--1--1--1-------------|--0--0--0--0--5--0--------|--1--1--1--1-------------|


                                                                                
--------------------------|-------------------------|--------------------------|
--------------------------|-------------------------|--------------------------|
--------------------------|-------------------------|--------------------------|
--------------------------|-------------------------|--------------------------|
--4-----------2-----4--5--|--5-----------2---4---5--|--4-----------2-----4--5--|
--2--2--2--2-----2--------|--3--3--3--3-------------|--2--2--2--2-----2--------|


                                                                               
-------------------------|--------------------------|-------------------------|
-------------------------|--------------------------|-------------------------|
-------------------------|--------------------------|-------------------------|
-------------------------|--------------------------|-------------------------|
--5-----------2---4---5--|--4-----------2-----4--5--|--5-----------2---4---5--|
--3--3--3--3-------------|--2--2--2--2-----2--------|--3--3--3--3-------------|


                                                                                
--------------------------|-------------------------|--------------------------|
--------------------------|-------------------------|--------------------------|
--------------------------|-------------------------|--------------------------|
--------------------------|-------------------------|--------------------------|
--4-----------2-----4--5--|--5-----------2---4---5--|--5-----------3-----5--6--|
--2--2--2--2-----2--------|--3--3--3--3-------------|--3--3--3--3-----3--------|


                                                                               
-------------------------|--------------------------|-------------------------|
-------------------------|--------------------------|-------------------------|
-------------------------|--------------------------|-------------------------|
-------------------------|--------------------------|-------------------------|
--6-----------3---5---6--|--5-----------3-----5--6--|--6-----------3---5---6--|
--4--4--4--4-------------|--3--3--3--3-----3--------|--4--4--4--4-------------|


                                                                                
--------------------------|-------------------------|--------------------------|
--------------------------|-------------------------|--------------------------|
--------------------------|-------------------------|--------------------------|
--------------------------|-------------------------|--------------------------|
--5-----------3-----5--6--|--6-----------3---5---6--|--5-----------3-----5--6--|
--3--3--3--3-----3--------|--4--4--4--4-------------|--3--3--3--3-----3--------|


                                                                               
-------------------------|--------------------------|-------------------------|
-------------------------|--------------------------|-------------------------|
-------------------------|--------------------------|-------------------------|
-------------------------|--------------------------|-------------------------|
--6-----------3---5---6--|--7-----------5-----7--8--|--8-----------5---7---8--|
--4--4--4--4-------------|--5--5--5--5-----5--------|--6--6--6--6-------------|


                                                                                
--------------------------|-------------------------|--------------------------|
--------------------------|-------------------------|--------------------------|
--------------------------|-------------------------|--------------------------|
--------------------------|-------------------------|--------------------------|
--7-----------5-----7--8--|--8-----------5---7---8--|--7-----------5-----7--8--|
--5--5--5--5-----5--------|--6--6--6--6-------------|--5--5--5--5-----5--------|


                                                                               
-------------------------|--------------------------|-------------------------|
-------------------------|--------------------------|-------------------------|
-------------------------|--------------------------|-------------------------|
-------------------------|--------------------------|-------------------------|
--8-----------5---7---8--|--7-----------5-----7--8--|--8-----------5---7---8--|
--6--6--6--6-------------|--5--5--5--5-----5--------|--6--6--6--6-------------|


                                                              
--------------------|-------------------|--------------------|
--------------------|-------------------|--------------------|
--------------------|-------------------|--------------------|
-----------------9--|--8----------------|-----------------9--|
--7--------------7--|--6----------------|--7--------------7--|
--5-----------------|-------------------|--5-----------------|


                                                             
-------------------|--------------------|-------------------|
-------------------|--------------------|-------------------|
-------------------|--------------------|-------------------|
--8----------------|-----------------9--|--8----------------|
--6----------------|--7--------------7--|--6----------------|
-------------------|--5-----------------|-------------------|


                                                              
--------------------|-------------------|--------------------|
--------------------|-------------------|--------------------|
--------------------|-------------------|--------------------|
-----------------9--|--8----------------|-----------------9--|
--7--------------7--|--6----------------|--7--------------7--|
--5-----------------|-------------------|--5-----------------|


                                                             
-------------------|--------------------|-------------------|
-------------------|--------------------|-------------------|
-------------------|--------------------|-------------------|
--8----------------|-----------------9--|--8----------------|
--6----------------|--7--------------7--|--6----------------|
-------------------|--5-----------------|-------------------|


                                                              
--------------------|-------------------|--------------------|
--------------------|-------------------|--------------------|
--------------------|-------------------|--------------------|
-----------------9--|--8----------------|-----------------9--|
--7--------------7--|--6----------------|--7--------------7--|
--5-----------------|-------------------|--5-----------------|


                                                             
-------------------|--------------------|-------------------|
-------------------|--------------------|-------------------|
-------------------|--2--------3--------|--4----------------|
--8----------------|--0--------0--------|--0----------------|
--6----------------|--------------------|-------------------|
-------------------|--------------------|-------------------|


                                                              
--------------------|-------------------|--------------------|
--------------------|-------------------|--------------------|
--2--------3--------|--4----------------|--2--------3--------|
--0--------0--------|--0----------------|--0--------0--------|
--------------------|-------------------|--------------------|
--------------------|-------------------|--------------------|


                                                               
-------------------|--------------------|---------------------|
-------------------|--------------------|---------------------|
--4----------------|--2--------3--------|--4------------------|
--0----------------|--0--------0--------|--0-----------9------|
-------------------|--------------------|--------------7------|
-------------------|--------------------|-----------0---------|


                                                                 
------------------|-----------------------|---------------------|
------------------|-----------------------|---------------------|
------------------|-----------------------|---------------------|
------------------|-----------------------|------------9--------|
------------------|--5--4--4--4------5----|--4----2----7--------|
------------------|--3--2--2--2------3----|--2----0-------------|


                                                                     
-----------------------|--------------------|-----------------------|
-----------------------|--------------------|-----------------------|
-----------------------|--------------------|-----------------------|
-----------------------|--------------------|-----------------------|
--5--4--4--4------5----|--4----2------------|--5--4--4--4------5----|
--3--2--2--2------3----|--2----0------------|--3--2--2--2------3----|


                                                                   
---------------------|-----------------------|--------------------|
---------------------|-----------------------|--------------------|
---------------------|-----------------------|--------------------|
------------9--------|-----------------------|--------------------|
--4----2----7--------|--5--4--4--4------5----|--4----2------------|
--2----0-------------|--3--2--2--2------3----|--2----0------------|


                                                                      
-----------------------|---------------------|-----------------------|
-----------------------|---------------------|-----------------------|
-----------------------|---------------------|-----------------------|
-----------------------|------------9--------|-----------------------|
--5--4--4--4------5----|--4----2----7--------|--5--4--4--4------5----|
--3--2--2--2------3----|--2----0-------------|--3--2--2--2------3----|


                                                                   
--------------------|-----------------------|---------------------|
--------------------|-----------------------|---------------------|
--------------------|-----------------------|---------------------|
--------------------|-----------------------|------------9--------|
--4----2------------|--5--4--4--4------5----|--4----2----7--------|
--2----0------------|--3--2--2--2------3----|--2----0-------------|


                                                                     
-----------------------|--------------------|-----------------------|
-----------------------|--------------------|-----------------------|
-----------------------|--------------------|-----------------------|
-----------------------|--------------------|-----------------------|
--5--4--4--4------5----|--4----2------------|--5--4--4--4------5----|
--3--2--2--2------3----|--2----0------------|--3--2--2--2------3----|


                                                                   
---------------------|-----------------------|--------------------|
---------------------|-----------------------|--------------------|
---------------------|-----------------------|--------------------|
------------9--------|-----------------------|--------------------|
--4----2----7--------|--5--4--4--4------5----|--4----2------------|
--2----0-------------|--3--2--2--2------3----|--2----0------------|


                                                                      
-----------------------|---------------------|-----------------------|
-----------------------|---------------------|-----------------------|
-----------------------|---------------------|-----------------------|
-----------------------|------------9--------|-----------------------|
--5--4--4--4------5----|--4----2----7--------|--5--4--4--4------5----|
--3--2--2--2------3----|--2----0-------------|--3--2--2--2------3----|


                                                                   
--------------------|-----------------------|---------------------|
--------------------|-----------------------|---------------------|
--------------------|-----------------------|---------------------|
--------------------|-----------------------|------------9--------|
--4----2------------|--5--4--4--4------5----|--4----2----7--------|
--2----0------------|--3--2--2--2------3----|--2----0-------------|


                                                                     
-----------------------|--------------------|-----------------------|
-----------------------|--------------------|-----------------------|
-----------------------|--------------------|-----------------------|
-----------------------|--------------------|-----------------------|
--5--4--4--4------5----|--4----2------------|--5--4--4--4------5----|
--3--2--2--2------3----|--2----0------------|--3--2--2--2------3----|


                                                                   
---------------------|-----------------------|--------------------|
---------------------|-----------------------|--------------------|
---------------------|-----------------------|--------------------|
------------9--------|-----------------------|--------------------|
--4----2----7--------|--5--4--4--4------5----|--4----2------------|
--2----0-------------|--3--2--2--2------3----|--2----0------------|


                                                           
--------------------|------------------|------------------|
--------------------|------------------|------------------|
--------------------|------------------|------------------|
------7--7----------|------------------|------------------|
------5--5----------|------------------|------------------|
--------------------|------------------|------------------|


                                                      
-----5--------------5-----|-----5--------------5-----|
-----------6-----5-----6--|-----------6-----5-----6--|
--------7-----------------|--------7-----------------|
--0-----------7-----------|--0-----------7-----------|
--------------------------|--------------------------|
--------------------------|--------------------------|


                                                      
-----6--------------6-----|-----6--------------6-----|
-----------6-----------6--|-----------6-----------6--|
--------7--------9--------|--------7--------9--------|
--0-----------8-----------|--0-----------8-----------|
--------------------------|--------------------------|
--------------------------|--------------------------|


                                                        
-----8---------------8-----|-----8---------------8-----|
-----------8------------8--|-----------8------------8--|
--------9---------9--------|--------9---------9--------|
--0-----------10-----------|--0-----------10-----------|
---------------------------|---------------------------|
---------------------------|---------------------------|


                                                      
-----5--------------5-----|-----5--------------5-----|
-----------6-----5-----6--|-----------6-----------6--|
--------7-----------------|--------7--------7--------|
--0-----------7-----------|--0-----------7-----------|
--------------------------|--------------------------|
--------------------------|--------------------------|


                                                      
-----5--------------5-----|-----5--------------5-----|
-----------6-----5-----6--|-----------6-----5-----6--|
--------7-----------------|--------7-----------------|
--0-----------7-----------|--0-----------7-----------|
--------------------------|--------------------------|
--------------------------|--------------------------|


                                                      
-----6--------------6-----|-----6--------------6-----|
-----------6-----------6--|-----------6-----------6--|
--------7--------9--------|--------7--------9--------|
--0-----------8-----------|--0-----------8-----------|
--------------------------|--------------------------|
--------------------------|--------------------------|


                                                        
-----8---------------8-----|-----8---------------8-----|
-----------8------------8--|-----------8------------8--|
--------9---------9--------|--------9---------9--------|
--0-----------10-----------|--0-----------10-----------|
---------------------------|---------------------------|
---------------------------|---------------------------|


                                                                  
-----5--------------5-----|--5----------------|------------------|
-----------6-----------5--|--6----------------|------------------|
--------7--------7--------|--7----------------|------------------|
--0-----------7-----------|--0----------------|------------------|
--------------------------|-------------------|------------------|
--------------------------|-------------------|------------------|


                                                                        
------------------|------|----------------------|----------------------|
------------------|------|----------------------|----------------------|
------------------|------|----------------------|----------------------|
------------------|------|--7----5----7----3----|--7----10----7--------|
------------------|------|--5----3----5----1----|--5----8-----5--------|
------------------|------|----------------------|----------------------|


                                                                                
--------------|----------------------|----------------------|------------------|
--------------|----------------------|----------------------|------------------|
--------------|----------------------|----------------------|------------------|
--------------|--7----5----7----3----|--7----10----7--------|------------------|
--------------|--5----3----5----1----|--5----8-----5--------|------------------|
--------------|----------------------|----------------------|------------------|


                      
--------------------||
--------------------||
--------------------||
--7--------7--------||
--5--------5--------||
--------------------||

*********************************
*********************************
Lead Part:
*********************************

D#||------------------|------------------|------------------|------------------|
A#||------------------|------------------|------------------|------------------|
F#||------------------|------------------|------------------|------------------|
C#||------------------|------------------|------------------|------------------|
G#||------------------|------------------|------------------|------------------|
D#||------------------|------------------|------------------|------------------|


                                                                            
------------------|------------------|------------------|------------------|
------------------|------------------|------------------|------------------|
------------------|------------------|------------------|------------------|
------------------|------------------|------------------|------------------|
------------------|------------------|------------------|------------------|
------------------|------------------|------------------|------------------|


                                                                            
------------------|------------------|------------------|------------------|
------------------|------------------|------------------|------------------|
------------------|------------------|------------------|------------------|
------------------|------------------|------------------|------------------|
------------------|------------------|------------------|------------------|
------------------|------------------|------------------|------------------|


                                                                            
------------------|------------------|------------------|------------------|
------------------|------------------|------------------|------------------|
------------------|------------------|------------------|------------------|
------------------|------------------|------------------|------------------|
------------------|------------------|------------------|------------------|
------------------|------------------|------------------|------------------|


                                        3x                    
|-------------------|-------------------||-------------------|
|-------------------|-------------------||-------------------|
|*------------------|------------------*||*------------------|
|*------------------|------------------*||*------------------|
|-------------------|-------------------||-------------------|
|-------------------|-------------------||-------------------|


                   3x                                       3x
-------------------||-------------------|-------------------||
-------------------||-------------------|-------------------||
------------------*||*------------------|------------------*||
------------------*||*------------------|------------------*||
-------------------||-------------------|-------------------||
-------------------||-------------------|-------------------||


                                       2x                           
-------------------|-------------------||--------------------------|
-------------------|-------------------||--------------------------|
*------------------|------------------*||--2--2--2--2--3--3--3--3--|
*------------------|------------------*||--0--0--0--0--0--0--0--0--|
-------------------|-------------------||--------------------------|
-------------------|-------------------||--------------------------|


                                                      
--------------------------|--------------0-----------|
--------------------------|-----------0-----0--------|
--4--4--4--4--5--5--5--5--|--------5-----------5-----|
--0--0--0--0--0--0--0--0--|-----7--------------------|
--------------------------|--0--------------------7--|
--------------------------|--------------------------|


                                                      
--------------0-----------|--------------0-----------|
-----------0-----0--------|-----------0-----0--------|
--------5-----------5-----|--------5-----------5-----|
-----7-----------------7--|-----7--------------------|
--6-----------------------|--0--------------------7--|
--------------------------|--------------------------|


                                                      
--------------0-----------|--------------0-----------|
-----------0-----0--------|-----------0-----0--------|
--------5-----------5-----|--------5-----------5-----|
-----7-----------------7--|-----7--------------------|
--6-----------------------|--0--------------------7--|
--------------------------|--------------------------|


                                                      
--------------0-----------|--------------0-----------|
-----------0-----0--------|-----------0-----0--------|
--------5-----------5-----|--------5-----------5-----|
-----7-----------------7--|-----7--------------------|
--6-----------------------|--0--------------------7--|
--------------------------|--------------------------|


                                                      
--------------0-----------|-----------1-----------1--|
-----------0-----0--------|--------3-----------3-----|
--------5-----------5-----|-----2-----------3--------|
-----7-----------------7--|--0-----------0-----------|
--6-----------------------|--------------------------|
--------------------------|--------------------------|


                                                      
-----------1-----------5--|-----------1-----------1--|
--------3-----------3-----|--------3-----------3-----|
-----4-----------5--------|-----2-----------3--------|
--0-----------0-----------|--0-----------0-----------|
--------------------------|--------------------------|
--------------------------|--------------------------|


                                                      
-----------1-----------5--|-----------1-----------1--|
--------3-----------3-----|--------3-----------3-----|
-----4-----------5--------|-----2-----------3--------|
--0-----------0-----------|--0-----------0-----------|
--------------------------|--------------------------|
--------------------------|--------------------------|


                                                      
-----------1-----------5--|-----------1-----------1--|
--------3-----------3-----|--------3-----------3-----|
-----4-----------5--------|-----2-----------3--------|
--0-----------0-----------|--0-----------0-----------|
--------------------------|--------------------------|
--------------------------|--------------------------|


                                                      
-----------1-----------5--|--------------0-----------|
--------3-----------3-----|-----------0-----0--------|
-----4-----------5--------|--------5-----------5-----|
--0-----------0-----------|-----7--------------------|
--------------------------|--0--------------------7--|
--------------------------|--------------------------|


                                                      
--------------0-----------|--------------0-----------|
-----------0-----0--------|-----------0-----0--------|
--------5-----------5-----|--------5-----------5-----|
-----7-----------------7--|-----7--------------------|
--6-----------------------|--0--------------------7--|
--------------------------|--------------------------|


                                                      
--------------0-----------|--------------0-----------|
-----------0-----0--------|-----------0-----0--------|
--------5-----------5-----|--------5-----------5-----|
-----7-----------------7--|-----7--------------------|
--6-----------------------|--0--------------------7--|
--------------------------|--------------------------|


                                                      
--------------0-----------|--------------0-----------|
-----------0-----0--------|-----------0-----0--------|
--------5-----------5-----|--------5-----------5-----|
-----7-----------------7--|-----7--------------------|
--6-----------------------|--0--------------------7--|
--------------------------|--------------------------|


                                                      
--------------0-----------|-----------1-----------1--|
-----------0-----0--------|--------3-----------3-----|
--------5-----------5-----|-----2-----------3--------|
-----7-----------------7--|--0-----------0-----------|
--6-----------------------|--------------------------|
--------------------------|--------------------------|


                                                      
-----------1-----------5--|-----------1-----------1--|
--------3-----------3-----|--------3-----------3-----|
-----4-----------5--------|-----2-----------3--------|
--0-----------0-----------|--0-----------0-----------|
--------------------------|--------------------------|
--------------------------|--------------------------|


                                                      
-----------1-----------5--|-----------1-----------1--|
--------3-----------3-----|--------3-----------3-----|
-----4-----------5--------|-----2-----------3--------|
--0-----------0-----------|--0-----------0-----------|
--------------------------|--------------------------|
--------------------------|--------------------------|


                                                              
-----------1-----------5--|----------------------------------|
--------3-----------3-----|----------------------------------|
-----4-----------5--------|----------------------------------|
--0-----------0-----------|--3-0-2-0-3-0-2-0-3-0-3-0-2-0-3-0-|
--------------------------|----------------------------------|
--------------------------|----------------------------------|


                                                              
----------------------------------|--------------------------|
----------------------------------|--------------------------|
----------------------------------|--------------------------|
--2-0-3-0-2-0-3-0-2-0-3-0-2-0-3-0-|-----------------------9--|
----------------------------------|--7--7--7--5--7--5--7--7--|
----------------------------------|--5--5--5--3--5--3--5-----|


                                                       
---------------------------|--------------------------|
---------------------------|--------------------------|
---------------------------|--------------------------|
--8--8--8--8--8--8--9--11--|-----------------------9--|
--6--6--6--6--6--6--7--9---|--7--7--7--5--7--5--7--7--|
---------------------------|--5--5--5--3--5--3--5-----|


                                                       
---------------------------|--------------------------|
---------------------------|--------------------------|
---------------------------|--------------------------|
--8--8--8--8--8--8--9--11--|-----------------------9--|
--6--6--6--6--6--6--7--9---|--7--7--7--5--7--5--7--7--|
---------------------------|--5--5--5--3--5--3--5-----|


                                                       
---------------------------|--------------------------|
---------------------------|--------------------------|
---------------------------|--------------------------|
--8--8--8--8--8--8--9--11--|-----------------------9--|
--6--6--6--6--6--6--7--9---|--7--7--7--5--7--5--7--7--|
---------------------------|--5--5--5--3--5--3--5-----|


                                                       
---------------------------|--------------------------|
---------------------------|--------------------------|
---------------------------|--------------------------|
--8--8--8--8--8--8--9--11--|--7--7--7--7--8--8--8--8--|
--6--6--6--6--6--6--7--9---|--5--5--5--5--5--5--5--5--|
---------------------------|--------------------------|


                                                          
------------------------------|--------------------------|
------------------------------|--------------------------|
------------------------------|--------------------------|
--9--9--9--9--10--10--10--10--|--7--7--7--7--8--8--8--8--|
--5--5--5--5--5---5---5---5---|--5--5--5--5--5--5--5--5--|
------------------------------|--------------------------|


                                                          
------------------------------|--------------------------|
------------------------------|--------------------------|
------------------------------|--------------------------|
--9--9--9--9--10--10--10--10--|--7--7--7--7--8--8--8--8--|
--5--5--5--5--5---5---5---5---|--5--5--5--5--5--5--5--5--|
------------------------------|--------------------------|


                                                                      
------------------------------|--------------------------------------|
------------------------------|--------------------------------------|
11 comments total. Showing first comments.
0 reply
Xx_banx wrote on December 4 2003, 12:00 am

thats one hell of a tab

0 reply
Xx_banx wrote on January 12 2004, 12:00 am

wat tuning is this?

0 reply
SpiritOfKtulu wrote on January 31 2004, 12:00 am

standard

I want to post or [tab]
guest
You may want to rate the tab now too:
select rating
Please do not post tabs as comments. Select "correction" instead!