Oops, an error
Loading. Please wait.

The Day That Never Comes Bass Tab

ver1
ver1
More versions @911Tabs.com
55,172 views 48 this week
17 commentsread comments
1 2 3 4 5
excellent!
x 10
Autoscroll
+/-
esc
set tempo
stop
Contributor
Difficulty
intermediate
Hey! There's an official Ultimate Guitar app which is ideal
for learning songs when you're away from computer. Get the app
WARNING: You are trying to view
                                    content from Ultimate-Guitar.com
                                    in an unauthorized application,
                                    which is prohibited.

                                    Please use an official Ultimate
                                    Guitar Tabs application for iPhone,
                                    iPad or Android to access legitimate
                                    chords, guitar, bass, and drum tabs
                                    from Ultimate-Guitar.com database.

                                    Type "ultimate guitar tabs" in Apple
                                    App Store's or Android Market's
                                    search to find the application.
                           The Day That Never Comes                             


                                                                       Metallica
Bass Gtr.



G||-------|-------|-------|-------|-------|-------|-------|
D||-------|-------|-------|-------|-------|-------|-------|
A||-------|-------|-------|-------|-------|-------|-------|
E||-------|-------|-------|-------|-------|-------|-------|
B||-------|-------|-------|-------|-------|-------|-------|


  Q.     E  E  E  E  E     W                   W                         
------------------------|-------------------|-------------------|-------|
------------------------|-------------------|-------------------|-------|
------------------------|-------------------|-------------------|-------|
---------5-----5-----5--|--5----------------|--L----------------|-------|
------------------------|-------------------|-------------------|-------|


  Q.     E  E  E  E  E     W                   W                         
------------------------|-------------------|-------------------|-------|
------------------------|-------------------|-------------------|-------|
------------------------|-------------------|-------------------|-------|
---------5-----5-----5--|--5----------------|--L----------------|-------|
------------------------|-------------------|-------------------|-------|


  Q.     E  E  E  E  E     W                   W                       
------------------------|-------------------|-------------------|-----|
------------------------|-------------------|-------------------|-----|
------------------------|-------------------|-------------------|-----|
---------5-----5-----0--|--5----------------|--L----------------|-----|
------------------------|-------------------|-------------------|-----|


  Q.     E  E  E  E  E     W                   W                 
------------------------|-------------------|-------------------|
------------------------|-------------------|-------------------|
------------------------|-------------------|-------------------|
---------5-----5-----5--|--5----------------|--L----------------|
------------------------|-------------------|-------------------|


                           |----3----|    |----3----|                         
  Q.     E  E  E  E  E     Q    Q    Q    Q    Q    Q       W                 
------------------------|--------------------------------|-------------------|
------------------------|--------------------------------|-------------------|
------------------------|--3-----------------------------|-------------------|
---------5-----5-----5--|-------0----1----0----1----3----|--5----------------|
------------------------|--------------------------------|-------------------|


  W                   W                   W                   W                 
-------------------|-------------------|-------------------|-------------------|
-------------------|-------------------|-------------------|-------------------|
-------------------|-------------------|-------------------|-------------------|
--L----------------|--L----------------|--L----------------|--5----------------|
-------------------|-------------------|-------------------|-------------------|


  W                   W                   H        H         
-------------------|-------------------|--------------------|
-------------------|-------------------|--------------------|
-------------------|-------------------|--3--------5--------|
--3----------------|--0----------------|--------------------|
-------------------|-------------------|--------------------|


  Q    Q    E  E  E  E     Q    Q    E  E  E  E     Q    Q    E  E  E  E   
------------------------|------------------------|------------------------|
------------------------|------------------------|------------------------|
------------------------|------------------------|------------------------|
--5----5----5--5-----5--|--3----3----3--3-----3--|--0----0----0--0-----0--|
------------------------|------------------------|------------------------|


  Q    Q    E  Q    E     Q    Q    E  E  E  E     Q    Q    E  E  E  E   
-----------------------|------------------------|------------------------|
-----------------------|------------------------|------------------------|
--3----3----2----------|------------------------|------------------------|
---------------3----5--|--5----5----5--5-----5--|--3----3----3--3-----3--|
-----------------------|------------------------|------------------------|


  Q    Q    E  E  E  E     Q    Q    E  E  E  E     Q.     E    E  Q    E   
------------------------|------------------------|-------------------------|
------------------------|------------------------|-----------------7-------|
------------------------|--3----3----3--5--5--5--|------------5g7----------|
--0----0----0--0-----0--|------------------------|--5------5------------0--|
------------------------|------------------------|-------------------------|


  Q    Q    E  E  E  E     Q    Q    E  E  E  E     Q    Q    E  Q    E   
------------------------|------------------------|-----------------------|
------------------------|------------------------|-----------------------|
------------------------|------------------------|--3----3----2----------|
--3----3----3--3-----3--|--0----0----0--0-----0--|---------------3----5--|
------------------------|------------------------|-----------------------|


  Q    Q    E  E  E  E     Q    Q    E  E  E  E     Q    Q    E  E  E  E   
------------------------|------------------------|------------------------|
------------------------|------------------------|------------------------|
------------------------|------------------------|------------------------|
--5----5----5--5-----5--|--3----3----3--3-----3--|--0----0----0--0-----0--|
------------------------|------------------------|------------------------|


  Q    Q    E  Q    E     Q    Q    E  E  E  E     Q    Q    E  E  E  E   
-----------------------|------------------------|------------------------|
-----------------------|------------------------|------------------------|
--3----3----2----------|------------------------|------------------------|
---------------3----5--|--5----5----5--5-----5--|--3----3----3--3-----3--|
-----------------------|------------------------|------------------------|


  Q    Q    E  E  E  E     Q    Q    E  Q    E     Q    Q    E  E  E  E   
------------------------|-----------------------|------------------------|
------------------------|-----------------------|------------------------|
------------------------|--3----3----2----------|------------------------|
--0----0----0--0-----0--|---------------3----5--|--5----5----5--5-----5--|
------------------------|-----------------------|------------------------|


  Q    Q    E  E  E  E     E  E  E  E  E  E  E  E     E  E  E  E  E  E  E  E   
------------------------|--------------------------|--------------------------|
------------------------|--------------------------|--------------------------|
------------------------|--------------------------|--3--3--3--3--5--5--5--5--|
--3----3----3--3-----3--|--0--0--0--0--0--0--0--0--|--------------------------|
------------------------|--------------------------|--------------------------|


  H        E  E  E  E     H        E  E  E  E     Q.     E  Q    Q     
-----------------------|-----------------------|----------------------|
-----------------------|-----------------------|------------2----2----|
--0--------0--3--0-----|-----------------------|---------2------------|
--------------------3--|--3--------3--5--3--2--|--0-------------------|
-----------------------|-----------------------|----------------------|


  E  E  Q    E  E  Q       H        E  E  E  E     H        E  E  E  E   
------------------------|-----------------------|-----------------------|
------------------------|-----------------------|-----------------------|
-----3--3-------3--3----|--0--------0--3--0-----|-----------------------|
--0----------0----------|--------------------3--|--3--------3--5--3--2--|
------------------------|-----------------------|-----------------------|


  Q.     E  Q    Q       E  E  Q    E  E  Q       H        E  E  E  E   
----------------------|------------------------|-----------------------|
------------2----2----|------------------------|-----------------------|
---------2------------|-----3--3-------3--3----|--0--------0--3--0-----|
--0-------------------|--0----------0----------|--------------------3--|
----------------------|------------------------|-----------------------|


  H        E  E  E  E     Q.     E  Q    Q       E  E  Q    E  E  Q     
-----------------------|----------------------|------------------------|
-----------------------|------------2----2----|------------------------|
-----------------------|---------2------------|-----3--3-------3--3----|
--3--------3--5--3--2--|--0-------------------|--0----------0----------|
-----------------------|----------------------|------------------------|


  H        E  E  E  E     H        E  E  E  E     Q    Q    Q    Q     
-----------------------|-----------------------|----------------------|
-----------------------|-----------------------|------------2----2----|
--0--------0--3--0-----|-----------------------|-------2--------------|
--------------------3--|--3--------3--5--3--2--|--0-------------------|
-----------------------|-----------------------|----------------------|


                           |--3--|  |--3--|  |--3--|  |--3--|   
  E  E  Q    E  E  Q       E  E  E  E  E  E  E  E  E  E  E  E   
------------------------|--------------------------------0--1--|
------------------------|--------------------0--2--3--3--------|
-----3--3-------3--3----|-----------0--2--3--------------------|
--0----------0----------|--0--1--4-----------------------------|
------------------------|--------------------------------------|


  W                   H        E  Q.        Q    Q    E  E  E  E   
-------------------|---------------------|------------------------|
-------------------|---------------------|------------------------|
-------------------|---------------------|------------------------|
--0----------------|--L--------0--3------|--5----5-------5-----5--|
-------------------|---------------------|------------------------|


  Q    Q    E  E  E  E     Q    Q    E  E  E  E     Q    Q      Q      Q     
------------------------|------------------------|--------------------------|
------------------------|------------------------|--------------------------|
------------------------|------------------------|------------5g7----5g7----|
--3----3-------3-----0--|--3----3-------3-----0--|--5----5------------------|
------------------------|------------------------|--------------------------|


  Q    Q    E  E  E  E     Q    Q    E  E  E  E     Q    Q    E  E  E  E    
------------------------|------------------------|-------------------------|
------------------------|------------------------|-------------------------|
------------------------|------------------------|-------------------------|
--5----5-------5-----5--|--3----3----3--0--3--0--|--3----3-------3-----3s--|
------------------------|------------------------|-------------------------|


   H            E   E   Q       Q    Q    E  E  E  E     Q    Q    E  E  E  E   
-----------------------------|------------------------|------------------------|
-----------------------------|------------------------|------------------------|
-----------------------------|------------------------|------------------------|
--17--------15g17--15--12----|--5----5----5--5-----5--|--3----3----3--3-----3--|
-----------------------------|------------------------|------------------------|


  Q    Q    E  E  E  E     Q    Q    E  Q    E     Q    Q    E  E  E  E   
------------------------|-----------------------|------------------------|
------------------------|-----------------------|------------------------|
------------------------|--3----3----2----------|------------------------|
--0----0----0--0-----0--|---------------3----5--|--5----5----5--5-----5--|
------------------------|-----------------------|------------------------|


  Q    Q    E  E  E  E     Q    Q    E  E  E  E     Q    Q    E  E  E  E   
------------------------|------------------------|------------------------|
------------------------|------------------------|------------------------|
------------------------|------------------------|--3----3----3--5--5--5--|
--3----3----3--3-----3--|--0----0----0--0-----0--|------------------------|
------------------------|------------------------|------------------------|


  Q.     E    E  E  E  E     Q    Q    E  E  E  E     Q    Q    E  E  E  E   
--------------------------|------------------------|------------------------|
-----------------7--------|------------------------|------------------------|
------------5g7-----7-----|------------------------|------------------------|
--5------5-------------5--|--3----3----3--3-----3--|--0----0----0--0-----0--|
--------------------------|------------------------|------------------------|


  Q    Q    E  Q    E     Q    Q    E  E  E  E     Q    Q    E  E  E  E   
-----------------------|------------------------|------------------------|
-----------------------|------------------------|------------------------|
--3----3----2----------|------------------------|---------------------3--|
---------------3----5--|--5----5----5--5-----5--|--3----3----3--5--5-----|
-----------------------|------------------------|------------------------|


  E  E  E  E  E  E  E  E     E  E  E  E  E  E  E  E     H        E  E  E  E   
--------------------------|--------------------------|-----------------------|
--------------------------|--------------------------|-----------------------|
--------------------------|--3--3--3--3--3--5--5--5--|--0--------0--3--0-----|
--0--0--0--0--0--0--0--0--|--------------------------|--------------------3--|
--------------------------|--------------------------|-----------------------|


  H        E  E  E  E     Q.     E  Q    Q       E  E  Q    E  E  Q     
-----------------------|----------------------|------------------------|
-----------------------|------------2----2----|------------------------|
-----------------------|---------2------------|-----3--3-------3--3----|
--3--------3--5--3--2--|--0-------------------|--0----------0----------|
-----------------------|----------------------|------------------------|


  H        E  E  E  E     H        E  E  E  E     Q.     E  Q    Q     
-----------------------|-----------------------|----------------------|
-----------------------|-----------------------|------------2----2----|
--0--------0--3--0-----|-----------------------|---------2------------|
--------------------3--|--3--------3--5--3--2--|--0-------------------|
-----------------------|-----------------------|----------------------|


  E  E  Q    E  E  Q       H        E  E  E  E     H        E  E  E  E   
------------------------|-----------------------|-----------------------|
------------------------|-----------------------|-----------------------|
-----3--3-------3--3----|--0--------0--3--0-----|-----------------------|
--0----------0----------|--------------------3--|--3--------3--5--3--2--|
------------------------|-----------------------|-----------------------|


  Q.     E  Q    Q       E  E  Q    E  E  Q       H        E  E  E  E   
----------------------|------------------------|-----------------------|
------------2----2----|------------------------|-----------------------|
---------2------------|-----3--3-------3--3----|--0--------0--3--0-----|
--0-------------------|--0----------0----------|--------------------3--|
----------------------|------------------------|-----------------------|


  H        E  E  E  E     Q    Q    Q    Q       E  E  Q    E  E  Q     
-----------------------|----------------------|------------------------|
-----------------------|------------2----2----|------------------------|
-----------------------|-------2--------------|-----3--3-------3--3----|
--3--------3--5--3--2--|--0-------------------|--0----------0----------|
-----------------------|----------------------|------------------------|


  |--3--|  |--3--|  |--3--|  |--3--|                       
  E  E  E  E  E  E  E  E  E  E  E  E     W                 
--------------------------------0--1--|-------------------|
--------------------0--2--3--3--------|-------------------|
-----------0--2--3--------------------|-------------------|
--0--1--4-----------------------------|--0----------------|
--------------------------------------|-------------------|


  |--3--|  |--3--|              |--3--|  |--3--|       |--3--|   
  E  E  E  E  E  E  H           E  E  E  E  E  E  Q    E  E  E   
-----------------------------|----------------------------------|
-----------------------------|----------------------------------|
-----------0--2--3-----------|-----------0--2--3----------------|
--0--1--4-----------3--------|--0--1--4-----------5----0--1--4--|
-----------------------------|----------------------------------|


       |--3--|          |--3--|  |--3--|  |--3--|  |--3--|   
  Q    E  E  E  Q       E  E  E  E  E  E  E  E  E  E  E  E   
---------------------|--------------------------------0--1--|
---------------------|--------------------0--2--3--3--------|
--3-------------2----|-----------0--2--3--------------------|
-------0--1--4-------|--0--1--4-----------------------------|
---------------------|--------------------------------------|


  H        H           H        H           H        H         
--------------------|--------------------|--------------------|
--------------------|--------------------|--------------------|
--------------------|--------------------|--------------------|
--8--------0--------|--7--------0--------|--8--------0--------|
--------------------|--------------------|--------------------|


  H        H           E  E  E  Q    E  Q       E  E  E  Q    E  Q     
--------------------|------------------------|------------------------|
--------------------|------------------------|------------------------|
--------------------|------------------------|------------------------|
--7--------0--------|--0--0--0--3----0--3----|--0--0--0--3----0--3----|
--------------------|------------------------|------------------------|


  E  E  E  Q    E  Q       E  E  E  E  E  E  E  S S    S S E  E  Q    E  Q     
------------------------|---------------------------|-------------------------|
------------------------|---------------------------|-------------------------|
------------------------|--2--1---------------------|-------------------------|
--0--0--0--3----0--3----|--------0--0--0--0--0--3-3-|--3-2-1--0--3----0--3----|
------------------------|---------------------------|-------------------------|


  E  E  E  Q    E  Q       E  E  E  Q    E  Q       E  E  E  E  E  E  E  S S  
------------------------|------------------------|---------------------------|
------------------------|------------------------|---------------------------|
------------------------|------------------------|--2--1---------------------|
--0--0--0--3----0--3----|--0--0--0--3----0--3----|--------0--0--0--0--0--3-3-|
------------------------|------------------------|---------------------------|


  S S E  E  Q    E  Q       E  E  E  Q    E  Q       E  E  E  Q    E  Q     
-------------------------|------------------------|------------------------|
-------------------------|------------------------|------------------------|
-------------------------|------------------------|------------------------|
--3-2-1--0--3----0--3----|--0--0--0--3----0--3----|--0--0--0--3----0--3----|
-------------------------|------------------------|------------------------|


  E  E  E  E  E  E  E  S S    S S E  E  Q    E  Q       E  E  E  Q    E  Q     
---------------------------|-------------------------|------------------------|
---------------------------|-------------------------|------------------------|
--2--1---------------------|-------------------------|------------------------|
--------0--0--0--0--0--3-3-|--3-2-1--0--3----0--3----|--0--0--0--3----0--3----|
---------------------------|-------------------------|------------------------|


  E  E  E  Q    E  Q       E  E  E  E  E  E  E  E     E  E  E  Q    E  Q     
------------------------|--------------------------|------------------------|
------------------------|--------------------------|------------------------|
------------------------|--2--1--------------------|------------------------|
--0--0--0--3----0--3----|--------0--0--0--0--0--0--|--2--2--2--5----2--5----|
------------------------|--------------------------|------------------------|


  E  E  E  Q    E  Q       E  E  E  Q    E  Q       Q    Q    Q    Q     
------------------------|------------------------|----------------------|
------------------------|------------------------|----------------------|
------------------------|------------------------|----------------------|
--2--2--2--5----2--5----|--2--2--2--5----2--5----|--5----7----4----7----|
------------------------|------------------------|----------------------|


  Q    Q    Q     Q    Q        E   Q     Q.          E   Q     Q.       
----------------------------|---------------------|---------------------|
----------------------------|---------------------|---------------------|
----------------------------|---------------------|---------------------|
--9----5----9----10----7----|--10--10----10\------|--10--10----10\------|
----------------------------|---------------------|---------------------|


  |--3--|  |--3--|  |--3--|  |--3--|                       
  E  E  E  E  E  E  E  E  E  E  E  E     W                 
--------------------------------0--1--|-------------------|
--------------------0--2--3--3--------|-------------------|
-----------0--2--3--------------------|-------------------|
--0--1--4-----------------------------|--0----------------|
--------------------------------------|-------------------|


  |--3--|  |--3--|  |--3--|  |--3--|                                           
  E  E  E  E  E  E  E  E  E  E  E  E     W                   W                 
--------------------------------0--1--|-------------------|-------------------|
--------------------0--2--3--3--------|-------------------|-------------------|
-----------0--2--3--------------------|-------------------|-------------------|
--0--1--4-----------------------------|--0----------------|--L----------------|
--------------------------------------|-------------------|-------------------|


  W                   W                                                         
-------------------|-------------------|-------------------|-------------------|
-------------------|-------------------|-------------------|-------------------|
-------------------|-------------------|-------------------|-------------------|
--L----------------|--L----------------|-------------------|-------------------|
-------------------|-------------------|-------------------|-------------------|


                                          E  E  E  E  E  E  E  E   
-------------------|-------------------|--------------------------|
-------------------|-------------------|--------------------------|
-------------------|-------------------|--------------------------|
-------------------|-------------------|--0--0--0--0--0--0--0--0--|
-------------------|-------------------|--------------------------|


  E  E  E  E  H           E  E  E  E  E  E  E  E     E  E  E  E  H         
-----------------------|--------------------------|-----------------------|
-----------------------|--------------------------|-----------------------|
-----------------------|--------------------------|-----------------------|
--0--0--0--------------|--0--0--0--0--0--0--0--0--|--0--0--0--------------|
-----------------------|--------------------------|-----------------------|


  E  E  E  E  E  E  Q       E  E  E  E  E  E  Q       E  E  E  E  E  E  E  E   
-------------------------|-------------------------|--------------------------|
-------------------------|-------------------------|--------------------------|
-------------------------|-------------------------|--------------------------|
--0--0--0--0--0--0-------|--0--0--0--0--0--0-------|--0--0--0--0--0--0--0--0--|
-------------------------|-------------------------|--------------------------|


  W                   E  E  E  E  E  E  E  E     E  E  E  E  H         
-------------------|--------------------------|-----------------------|
-------------------|--------------------------|-----------------------|
-------------------|--------------------------|-----------------------|
-------------------|--0--0--0--0--0--0--0--0--|--0--0--0--------------|
--4----------------|--------------------------|-----------------------|


  E  E  E  E  E  E  E  E     E  E  E  E  H           E  E  E  E  E  E  Q     
--------------------------|-----------------------|-------------------------|
--------------------------|-----------------------|-------------------------|
--------------------------|-----------------------|-------------------------|
--0--0--0--0--0--0--0--0--|--0--0--0--------------|--0--0--0--0--0--0-------|
--------------------------|-----------------------|-------------------------|


  E  E  E  E  E  E  Q       E  E  E  E  E  E  E  E     W                 
-------------------------|--------------------------|-------------------|
-------------------------|--------------------------|-------------------|
-------------------------|--------------------------|-------------------|
--0--0--0--0--0--0-------|--0--0--0--0--0--0--0--0--|-------------------|
-------------------------|--------------------------|--4----------------|


  E  E  E  E  E  E  E  E     E  E  E  E  H           E  E  E  E  E  E  E  E   
--------------------------|-----------------------|--------------------------|
--------------------------|-----------------------|--------------------------|
--------------------------|-----------------------|--------------------------|
--0--0--0--0--0--0--0--0--|--0--0--0--------------|--0--0--0--0--0--0--0--0--|
--------------------------|-----------------------|--------------------------|


  E  E  E  E  H           Q    E  E  E  E  Q       Q    E  E  E  E  Q     
-----------------------|------------------------|------------------------|
-----------------------|------------------------|------------------------|
-----------------------|------------------------|------------------------|
--0--0--0--------------|--0----0--0--0--0--0----|--2----2--2--2--2--2----|
-----------------------|------------------------|------------------------|


  Q    E  E  E  E  Q       E  E  Q    E  E  Q       Q    E  E  E  E  Q     
------------------------|------------------------|------------------------|
------------------------|------------------------|------------------------|
------------------------|------------------------|--3----3--3--3--3--3----|
--3----3--3--3--3--3----|--3--3--3----3--3--3----|------------------------|
------------------------|------------------------|------------------------|


  Q    E  E  E  E  Q       Q    E  E  E  E  Q       Q    E  E  E  E  Q     
------------------------|------------------------|------------------------|
------------------------|------------------------|------------------------|
--2----2--2--2--2--2----|--0----0--0--0--0--0----|------------------------|
------------------------|------------------------|--3----3--3--3--3--3----|
------------------------|------------------------|------------------------|


  Q    E  E  E  E  Q       Q    E  E  E  E  Q       Q    E  E  E  E  Q     
------------------------|------------------------|------------------------|
------------------------|------------------------|------------------------|
------------------------|------------------------|------------------------|
--0----0--0--0--0--0----|--2----2--2--2--2--2----|--3----3--3--3--3--3----|
------------------------|------------------------|------------------------|


  E  E  Q    E  E  Q        Q     E   E   E   E  Q     
------------------------|-----------------------------|
------------------------|-----------------------------|
------------------------|--10----10--10--10p--9--7----|
--3--3--3----3--3--3----|-----------------------------|
------------------------|-----------------------------|


  Q    E  E  E   E  Q       Q    E  E  E   E  Q     
-------------------------|-------------------------|
-------------------------|-------------------------|
--9----9--9--9p--7--5----|--7----7--7--7p--5--3----|
-------------------------|-------------------------|
-------------------------|-------------------------|


  |---3---|       |---3---|          |---3---|       |---3---|        
  E   E   E  Q    E   E   E  Q       E   E   E  Q    E   E   E  Q     
----------------------------------|----------------------------------|
----------------------------------|----------------------------------|
--3h--5p--3--2----2h--3p--2--0----|--0h--2p--0-----------------------|
----------------------------------|-------------3----3h--5p--3--2----|
----------------------------------|----------------------------------|


  E   E  E   E  E  E  E  E     W                   W                 
----------------------------|-------------------|-------------------|
----------------------------|-------------------|-------------------|
----------------------------|-------------------|-------------------|
--0h--3--3p--0--7--7--3--3--|--8----------------|--0----------------|
----------------------------|-------------------|-------------------|


  W                   W                   W                   W                 
-------------------|-------------------|-------------------|-------------------|
-------------------|-------------------|-------------------|-------------------|
-------------------|-------------------|-------------------|-------------------|
--7----------------|--0----------------|--8----------------|--0----------------|
-------------------|-------------------|-------------------|-------------------|


  W                   W                 
-------------------|-------------------|
-------------------|-------------------|
-------------------|-------------------|
--7----------------|--0----------------|
-------------------|-------------------|


  |---3---|  |---3---|  |---3---|  |---3---|   
  E   E   E  E   E   E  E   E   E  E   E   E   
----------------------------------------------|
----------------------------------------------|
----------------------------------------------|
--0h--5h--8--0h--5h--8--0h--5h--8--0h--5h--8--|
----------------------------------------------|


  |---3---|  |---3---|  |---3---|  |---3---|   
  E   E   E  E   E   E  E   E   E  E   E   E   
----------------------------------------------|
----------------------------------------------|
----------------------------------------------|
--0h--5h--8--0h--5h--8--0h--5h--8--0h--5h--8--|
----------------------------------------------|


  |---3---|  |---3---|  |---3---|  |---3---|   
  E   E   E  E   E   E  E   E   E  E   E   E   
----------------------------------------------|
----------------------------------------------|
----------------------------------------------|
--0h--5h--7--0h--5h--7--0h--5h--7--0h--5h--7--|
----------------------------------------------|


  |---3---|  |---3---|             
  E   E   E  E   E   E  E  Q.      
----------------------------------|
----------------------------------|
----------------------------------|
--0h--4h--7--0h--4h--7--0---------|
----------------------------------|


  |---3---|  |---3---|  |---3---|  |---3---|   
  E   E   E  E   E   E  E   E   E  E   E   E   
----------------------------------------------|
----------------------------------------------|
----------------------------------------------|
--0h--5h--8--0h--5h--8--0h--5h--8--0h--5h--8--|
----------------------------------------------|


  |---3---|  |---3---|  |---3---|  |---3---|   
  E   E   E  E   E   E  E   E   E  E   E   E   
----------------------------------------------|
----------------------------------------------|
----------------------------------------------|
--0h--5h--8--0h--5h--8--0h--5h--8--0h--5h--8--|
----------------------------------------------|


  |---3---|  |---3---|  |---3---|  |---3---|   
  E   E   E  E   E   E  E   E   E  E   E   E   
----------------------------------------------|
----------------------------------------------|
----------------------------------------------|
--0h--5h--7--0h--5h--7--0h--5h--7--0h--5h--7--|
----------------------------------------------|


  |---3---|  |---3---|             
  E   E   E  E   E   E  E  Q.      
----------------------------------|
----------------------------------|
----------------------------------|
--0h--4h--7--0h--4h--7--0---------|
----------------------------------|


  |---3---|  |---3---|  |---3---|  |---3---|   
  E   E   E  E   E   E  E   E   E  E   E   E   
----------------------------------------------|
----------------------------------------------|
----------------------------------------------|
--0h--5h--8--0h--5h--8--0h--5h--8--0h--5h--8--|
----------------------------------------------|


  |---3---|  |---3---|  |---3---|  |---3---|   
  E   E   E  E   E   E  E   E   E  E   E   E   
----------------------------------------------|
----------------------------------------------|
----------------------------------------------|
--0h--5h--8--0h--5h--8--0h--5h--8--0h--5h--8--|
----------------------------------------------|


  |---3---|  |---3---|  |---3---|  |---3---|   
  E   E   E  E   E   E  E   E   E  E   E   E   
----------------------------------------------|
----------------------------------------------|
----------------------------------------------|
--0h--5h--7--0h--5h--7--0h--5h--7--0h--5h--7--|
----------------------------------------------|


  |---3---|  |---3---|             
  E   E   E  E   E   E  E  Q.      
----------------------------------|
----------------------------------|
----------------------------------|
--0h--4h--7--0h--4h--7--0---------|
----------------------------------|


  |---3---|  |---3---|  |---3---|  |---3---|   
  E   E   E  E   E   E  E   E   E  E   E   E   
----------------------------------------------|
----------------------------------------------|
----------------------------------------------|
--0h--5h--8--0h--5h--8--0h--5h--8--0h--5h--8--|
----------------------------------------------|


  |---3---|  |---3---|  |---3---|  |---3---|   
  E   E   E  E   E   E  E   E   E  E   E   E   
----------------------------------------------|
----------------------------------------------|
----------------------------------------------|
--0h--5h--8--0h--5h--8--0h--5h--8--0h--5h--8--|
----------------------------------------------|


  |---3---|  |---3---|  |---3---|  |---3---|   
  E   E   E  E   E   E  E   E   E  E   E   E   
----------------------------------------------|
----------------------------------------------|
----------------------------------------------|
--0h--5h--7--0h--5h--7--0h--5h--7--0h--5h--7--|
----------------------------------------------|


  |---3---|  |---3---|                                                     
  E   E   E  E   E   E  E  Q.        W                   W                 
----------------------------------|-------------------|-------------------|
----------------------------------|-------------------|-------------------|
----------------------------------|-------------------|-------------------|
--0h--4h--7--0h--4h--7--0---------|--8----------------|--0----------------|
----------------------------------|-------------------|-------------------|


  W                   W                   W                   W                 
-------------------|-------------------|-------------------|-------------------|
-------------------|-------------------|-------------------|-------------------|
-------------------|-------------------|-------------------|-------------------|
--7----------------|--0----------------|--8----------------|--0----------------|
-------------------|-------------------|-------------------|-------------------|


  W                   W                   E  E  E  Q    E  Q     
-------------------|-------------------|------------------------|
-------------------|-------------------|------------------------|
-------------------|-------------------|--7--7--7--7----7--7----|
--7----------------|--0----------------|------------------------|
-------------------|-------------------|------------------------|


  E  E  E  Q    E  Q       E  E  E  Q    E  Q       E  E  E  Q    E  Q     
------------------------|------------------------|------------------------|
------------------------|------------------------|------------------------|
--7--7--7--7----7--7----|--7--7--7--7----7--7----|--7--7--7--7----7--7----|
------------------------|------------------------|------------------------|
------------------------|------------------------|------------------------|


  E  E  E  Q    E  Q       E  E  E  Q    E  Q       E  E  E  Q    E  Q     
------------------------|------------------------|------------------------|
------------------------|------------------------|------------------------|
--7--7--7--7----7--7----|--7--7--7--7----7--7----|--7--7--7--7----7--7----|
------------------------|------------------------|------------------------|
------------------------|------------------------|------------------------|


  E  E  E  Q    E  Q       Q    Q    Q    Q       Q    Q    Q    Q     
------------------------|----------------------|----------------------|
------------------------|----------------------|----------------------|
--7--7--7--7----7--7----|--2----0--------------|--2----0--------------|
------------------------|------------3----0----|------------3----0----|
------------------------|----------------------|----------------------|


  Q    Q    Q    Q       Q    Q    Q    Q       Q    Q    Q    Q     
----------------------|----------------------|----------------------|
-----------------5----|----------------------|----------------------|
--0----2----5---------|--7----5----2----0----|--2----0--------------|
----------------------|----------------------|------------3----0----|
----------------------|----------------------|----------------------|


  Q    Q    Q    Q       Q    Q    Q    Q       Q    Q    Q    Q     
----------------------|----------------------|----------------------|
----------------------|-----------------5----|----------------------|
--2----0--------------|--0----2----5---------|------------2---------|
------------3----0----|----------------------|--0----3---------3----|
----------------------|----------------------|----------------------|


  Q    Q    Q    Q       Q    Q    Q    Q       Q    Q    Q    Q     
----------------------|----------------------|----------------------|
----------------------|----------------------|-----------------5----|
--2----0--------------|--2----0--------------|--0----2----5---------|
------------3----0----|------------3----0----|----------------------|
----------------------|----------------------|----------------------|


  Q    Q    Q    Q       Q    Q    Q    Q       Q    Q    Q    Q     
----------------------|----------------------|----------------------|
----------------------|----------------------|----------------------|
--7----5----2----0----|--2----0--------------|--2----0--------------|
----------------------|------------3----0----|------------3----0----|
----------------------|----------------------|----------------------|


  Q    Q    Q    Q       Q    Q    Q    Q       Q    E  E  E  E  E  E   
----------------------|----------------------|-------------------------|
-----------------5----|----------------------|-------------------------|
--0----2----5---------|------------2---------|--2----2--2--2--2--2--2--|
----------------------|--0----3---------3----|-------------------------|
----------------------|----------------------|-------------------------|


  E  E  E  E  E  E  E  E     E  E  E  E  E  E  E  E   
--------------------------|--------------------------|
--------------------------|--------------------------|
--2--2--2--2--2--2--2--2--|--2--2--2--2--2--2--2--2--|
--------------------------|--------------------------|
--------------------------|--------------------------|


  E  E  E  E  E  E  E  E     E  E  E  E  E  E  E  E   
--------------------------|--------------------------|
--------------------------|--------------------------|
--2--2--2--2--2--2--2--2--|--2--2--2--2--2--2--2--2--|
--------------------------|--------------------------|
--------------------------|--------------------------|


  E  E  E  E  E  E  E  E     E  E  E  E  E  E  E  E   
--------------------------|--------------------------|
--------------------------|--------------------------|
--2--2--2--2--2--2--2--2--|--2--2--2--2--2--2--2--2--|
--------------------------|--------------------------|
--------------------------|--------------------------|


  E  E  E  E  E  E  E  E     E  E  E  E  E  E  E  E   
--------------------------|--------------------------|
--------------------------|--------------------------|
--2--2--2--2--2--2--2--2--|--------------------------|
--------------------------|--0--0--0--0--0--0--0--0--|
--------------------------|--------------------------|


  E  E  E  E  E  E  E  E     E  E  E  E  E  E  E  E   
--------------------------|--------------------------|
--------------------------|--------------------------|
--------------------------|--------------------------|
--0--0--0--0--0--0--0--0--|--0--0--0--0--0--0--0--0--|
--------------------------|--------------------------|


  E  E  E  E  E  E  E  E     E  E  E  E  E  E  E  E   
--------------------------|--------------------------|
--------------------------|--------------------------|
--------------------------|--------------------------|
--0--0--0--0--0--0--0--0--|--0--0--0--0--0--0--0--0--|
--------------------------|--------------------------|


  E  E  E  E  E  E  E  E     E  E  E  E  E  E  E  E   
--------------------------|--------------------------|
--------------------------|--------------------------|
--------------------------|--------------------------|
--0--0--0--0--0--0--0--0--|--0--0--0--0--0--0--0--0--|
--------------------------|--------------------------|


  E  E  E  E  E  E  E  E     E  E  E  E  E  E  E  E   
--------------------------|--------------------------|
--------------------------|--------------------------|
--------------------------|--------------------------|
--0--0--0--0--0--0--0--0--|--5--5--5--5--5--5--5--5--|
--------------------------|--------------------------|


  E  E  E  E  E  E  E  E     E  E  E  E  E  E  E  E     H        H         
--------------------------|--------------------------|--------------------|
--------------------------|--------------------------|--------------------|
--------------------------|--------------------------|--------------------|
--5--5--5--5--5--5--5--5--|--5--5--5--5--5--5--5--5--|--5--------6--------|
--------------------------|--------------------------|--------------------|


  Q    E  E  E  E  E  E     E  E  E  E  E  E  E  E     E  E  E  E  E  E  E  E   
-------------------------|--------------------------|--------------------------|
-------------------------|--------------------------|--------------------------|
-------------------------|--------------------------|--------------------------|
--7----7--7--7--7--7--7--|--7--7--7--7--7--7--7--7--|--3--3--3--3--3--3--3--3--|
-------------------------|--------------------------|--------------------------|


  E  E  E  E  E  E  E  E     E  E  E  E  E  E  E  E   
--------------------------|--------------------------|
--------------------------|--------------------------|
--------------------------|--------------------------|
--3--3--3--3--3--3--3--3--|--5--5--5--5--5--5--5--5--|
--------------------------|--------------------------|


  E  E  E  E  E  E  E  E     E  E  E  E  E  E  E  E   
--------------------------|--------------------------|
--------------------------|--------------------------|
--------------------------|--------------------------|
--5--5--5--5--5--5--5--5--|--2--2--2--2--2--2--2--2--|
--------------------------|--------------------------|


  E  E  E  E  E  E  E  E     E  E  E  E  E  E  E  E   
--------------------------|--------------------------|
--------------------------|--------------------------|
--------------------------|--------------------------|
--2--2--2--2--2--2--2--2--|--7--7--7--7--7--7--7--7--|
--------------------------|--------------------------|


  E  E  E  E  E  E  E  E     E  E  E  E  E  E  E  E   
--------------------------|--------------------------|
--------------------------|--------------------------|
--------------------------|--------------------------|
--7--7--7--7--7--7--7--7--|--3--3--3--3--3--3--3--3--|
--------------------------|--------------------------|


  E  E  E  E  E  E  E  E     E  E  E  E  E  E  E  E   
--------------------------|--------------------------|
--------------------------|--------------------------|
--------------------------|--------------------------|
--3--3--3--3--3--3--3--3--|--5--5--5--5--5--5--5--5--|
--------------------------|--------------------------|


  E  E  E  E  E  E  E  E     E  E  E  E  E  E  E  E   
--------------------------|--------------------------|
--------------------------|--------------------------|
--------------------------|--------------------------|
--5--5--5--5--5--5--5--5--|--2--2--2--2--2--2--2--2--|
--------------------------|--------------------------|


  E  E  E  E  E  E  E  E     E  E  E  E  E  E  E  E   
--------------------------|--------------------------|
--------------------------|--------------------------|
--------------------------|--------------------------|
--2--2--2--2--2--2--2--2--|--0--0--0--0--0--0--0--0--|
--------------------------|--------------------------|


  E  E  E  E  E  E  E  E     E  E  E  E  E  E  E  E   
--------------------------|--------------------------|
--------------------------|--------------------------|
--------------------------|--------------------------|
--0--0--0--0--0--0--0--0--|--0--0--0--0--0--0--0--0--|
--------------------------|--------------------------|


  E  E  E  E  E  E  E  E     E  E  E  E  E  E  E  E   
--------------------------|--------------------------|
--------------------------|--------------------------|
--------------------------|--------------------------|
--0--0--0--0--0--0--0--0--|--0--0--0--0--0--0--0--0--|
--------------------------|--------------------------|


  E  E  E  E  E  E  E  E     E  E  E  E  E  E  E  E   
--------------------------|--------------------------|
--------------------------|--------------------------|
--------------------------|--------------------------|
--0--0--0--0--0--0--0--0--|--0--0--0--0--0--0--0--0--|
--------------------------|--------------------------|


                             |---3---|  |---3---|  |---3---|  |---3---|   
  E  E  E  E  E  E  E  E     E   E   E  E   E   E  E   E   E  E   E   E   
--------------------------|----------------------------------------------|
--------------------------|----------------------------------------------|
--------------------------|----------------------------------------------|
--0--0--0--0--0--0--0--0--|--0h--5h--8--0h--5h--8--0h--5h--8--0h--5h--8--|
--------------------------|----------------------------------------------|


  |---3---|  |---3---|  |---3---|  |---3---|   
  E   E   E  E   E   E  E   E   E  E   E   E   
----------------------------------------------|
----------------------------------------------|
----------------------------------------------|
--0h--5h--8--0h--5h--8--0h--5h--8--0h--5h--8--|
----------------------------------------------|


  |---3---|  |---3---|  |---3---|  |---3---|   
  E   E   E  E   E   E  E   E   E  E   E   E   
----------------------------------------------|
----------------------------------------------|
----------------------------------------------|
--0h--5h--7--0h--5h--7--0h--5h--7--0h--5h--7--|
----------------------------------------------|


  |---3---|  |---3---|             
  E   E   E  E   E   E  E  Q.      
----------------------------------|
----------------------------------|
----------------------------------|
--0h--4h--7--0h--4h--7--0---------|
----------------------------------|


  |---3---|  |---3---|  |---3---|  |---3---|   
  E   E   E  E   E   E  E   E   E  E   E   E   
----------------------------------------------|
----------------------------------------------|
----------------------------------------------|
--0h--5h--8--0h--5h--8--0h--5h--8--0h--5h--8--|
----------------------------------------------|


  |---3---|  |---3---|  |---3---|  |---3---|   
  E   E   E  E   E   E  E   E   E  E   E   E   
----------------------------------------------|
----------------------------------------------|
----------------------------------------------|
--0h--5h--8--0h--5h--8--0h--5h--8--0h--5h--8--|
----------------------------------------------|


  |---3---|  |---3---|  |---3---|  |---3---|   
  E   E   E  E   E   E  E   E   E  E   E   E   
----------------------------------------------|
----------------------------------------------|
----------------------------------------------|
--0h--5h--7--0h--5h--7--0h--5h--7--0h--5h--7--|
----------------------------------------------|


  |---3---|  |---3---|             
  E   E   E  E   E   E  E  Q.      
----------------------------------|
----------------------------------|
----------------------------------|
--0h--4h--7--0h--4h--7--0---------|
----------------------------------|


  |---3---|  |---3---|  |---3---|  |---3---|   
  E   E   E  E   E   E  E   E   E  E   E   E   
----------------------------------------------|
----------------------------------------------|
----------------------------------------------|
--0h--5h--8--0h--5h--8--0h--5h--8--0h--5h--8--|
----------------------------------------------|


  |---3---|  |---3---|  |---3---|  |---3---|   
  E   E   E  E   E   E  E   E   E  E   E   E   
----------------------------------------------|
----------------------------------------------|
----------------------------------------------|
--0h--5h--8--0h--5h--8--0h--5h--8--0h--5h--8--|
----------------------------------------------|


  |---3---|  |---3---|  |---3---|  |---3---|   
  E   E   E  E   E   E  E   E   E  E   E   E   
----------------------------------------------|
----------------------------------------------|
----------------------------------------------|
--0h--5h--7--0h--5h--7--0h--5h--7--0h--5h--7--|
----------------------------------------------|


  |---3---|  |---3---|             
  E   E   E  E   E   E  E  Q.      
----------------------------------|
----------------------------------|
----------------------------------|
--0h--4h--7--0h--4h--7--0---------|
----------------------------------|


  |---3---|  |---3---|  |---3---|  |---3---|   
  E   E   E  E   E   E  E   E   E  E   E   E   
----------------------------------------------|
----------------------------------------------|
----------------------------------------------|
--0h--5h--8--0h--5h--8--0h--5h--8--0h--5h--8--|
----------------------------------------------|


  |---3---|  |---3---|  |---3---|  |---3---|   
  E   E   E  E   E   E  E   E   E  E   E   E   
----------------------------------------------|
----------------------------------------------|
----------------------------------------------|
--0h--5h--8--0h--5h--8--0h--5h--8--0h--5h--8--|
----------------------------------------------|


  |---3---|  |---3---|  |---3---|  |---3---|   
  E   E   E  E   E   E  E   E   E  E   E   E   
----------------------------------------------|
----------------------------------------------|
----------------------------------------------|
--0h--5h--7--0h--5h--7--0h--5h--7--0h--5h--7--|
----------------------------------------------|


  |---3---|  |---3---|                                                     
  E   E   E  E   E   E  E  Q.        W                   W                 
----------------------------------|-------------------|-------------------|
----------------------------------|-------------------|-------------------|
----------------------------------|-------------------|-------------------|
--0h--4h--7--0h--4h--7--0---------|--8----------------|--0----------------|
----------------------------------|-------------------|-------------------|


  W                   W                   W                   W                 
-------------------|-------------------|-------------------|-------------------|
-------------------|-------------------|-------------------|-------------------|
-------------------|-------------------|-------------------|-------------------|
--7----------------|--0----------------|--8----------------|--0----------------|
-------------------|-------------------|-------------------|-------------------|


  W                   E  E  E  E  E  E  E  E     W                 
-------------------|--------------------------|-------------------|
-------------------|--------------------------|-------------------|
-------------------|--------------------------|-------------------|
--7----------------|--3--2--0--0--3--2--0--0--|--8----------------|
-------------------|--------------------------|-------------------|


  W                   W                   E  E  E  E  E  E  E  E   
-------------------|-------------------|--------------------------|
-------------------|-------------------|--------------------------|
-------------------|-------------------|--------------------------|
--0----------------|--7----------------|--3--2--0--0--3--2--0--0--|
-------------------|-------------------|--------------------------|


  H        H           H        H           H        H         
--------------------|--------------------|--------------------|
--------------------|--------------------|--------------------|
--------------------|--8--------7--------|--------------------|
--8--------7--------|--------------------|--3--------2--------|
--------------------|--------------------|--------------------|


  W                   H        H           H        H         
-------------------|--------------------|--------------------|
-------------------|--------------------|--------------------|
-------------------|--------------------|--8--------7--------|
--0----------------|--8--------7--------|--------------------|
-------------------|--------------------|--------------------|


  H        H           W                   W                 
--------------------|-------------------|-------------------|
--------------------|-------------------|-------------------|
--------------------|-------------------|--5----------------|
--3--------2--------|--0----------------|-------------------|
--------------------|-------------------|-------------------|


                      |----3----|    |----3----|                         
  W                   Q    Q    Q    Q    Q    Q       W                 
-------------------|--------------------------------|-------------------|
-------------------|--------------------------------|-------------------|
-------------------|--------------------------------|--5----------------|
--2----------------|--------------------------------|-------------------|
-------------------|--3----2----0----3----2----0----|-------------------|


                      |----3----|    |----3----|                          
  W                   Q    Q    Q    Q    Q    Q       H        H         
-------------------|--------------------------------|--------------------|
-------------------|--------------------------------|--------------------|
-------------------|--------------------------------|--------------------|
--2----------------|--------------------------------|--8--------7--------|
-------------------|--3----2----0----3----2----0----|--------------------|


  H        H           H        H           W                 
--------------------|--------------------|-------------------|
--------------------|--------------------|-------------------|
--8--------7--------|--------------------|-------------------|
--------------------|--3--------2--------|--0----------------|
--------------------|--------------------|-------------------|


  |---3---|  |---3---|  |---3---|  |---3---|   
  E   E   E  E   E   E  E   E   E  E   E   E   
----------------------------------------------|
----------------------------------------------|
----------------------------------------------|
--0h--5h--8--0h--5h--8--0h--5h--8--0h--5h--8--|
----------------------------------------------|


  |---3---|  |---3---|  |---3---|  |---3---|   
  E   E   E  E   E   E  E   E   E  E   E   E   
----------------------------------------------|
----------------------------------------------|
----------------------------------------------|
--0h--5h--8--0h--5h--8--0h--5h--8--0h--5h--8--|
----------------------------------------------|


  |---3---|  |---3---|  |---3---|  |---3---|     |--3--|  |--3--|              
  E   E   E  E   E   E  E   E   E  E   E   E     E  E  E  E  E  E  Q    Q      
----------------------------------------------|------------------------------||
----------------------------------------------|------------------------------||
----------------------------------------------|------------------------------||
--0h--5h--7--0h--5h--7--0h--5h--7--0h--5h--7--|--1--1--1--1--1--1--0---------||
----------------------------------------------|------------------------------||




Duration Legend
---------------
W - whole
H - half
Q - quarter
E - 8th
S - 16th
T - 32nd
X - 64th
. - note dotted
|-n-|  - n-tuplets


Tablature Legend
----------------
L - tied note
x - dead note
g - grace note
(n) - ghost note
> - accentuded note
NH - natural harmonic
AH - artificial harmonic
TH - tapped harmonic
SH - semi harmonic
PH - pitch harmonic
h - hammer on
p - pull off
b - bend
br - bendRelease
pb - preBend
pbr - preBendRelease
brb - bendReleaseBend
\n/ - tremolo bar dip
\n - tremolo bar dive
-/n - tremolo bar Release up
/n\ - tremolo bar inverted dip
/n - tremolo bar return
-\n - tremolo bar Release down
S - shift slide
s - legato slide
/ -  slide into from below or out of upwards
\ -  slide into from above or out of downwards
~ - vibrato
W - wide vibrato
tr - trill
TP - tremolo picking
T - tapping
S - slap
P - pop
< - fade in
^ - brush up
v - brush down
comments
print report bad tab
17 comments total. Showing first comments. show 2 bad comments
+4 reply
Satan Man wrote on September 17 2008, 01:43 pm

Puts Burton to shame? Cliff Burton was and still is the best bass player who ever lived!

I want to post or [tab]
guest
You may want to rate the tab now too:
select rating
Please do not post tabs as comments. Select "correction" instead!