Oops, an error
Loading. Please wait.

The Day That Never Comes Tab

ver1
ver1

Intro

Solo

Video

More versions @911Tabs.com
592,273 views 218 this week
17 commentsread comments
1 2 3 4 5
accurate
x 48
Autoscroll
+/-
esc
set tempo
stop
Contributor
WARNING: You are trying to view
                                    content from Ultimate-Guitar.com
                                    in an unauthorized application,
                                    which is prohibited.

                                    Please use an official Ultimate
                                    Guitar Tabs application for iPhone,
                                    iPad or Android to access legitimate
                                    chords, guitar, bass, and drum tabs
                                    from Ultimate-Guitar.com database.

                                    Type "ultimate guitar tabs" in Apple
                                    App Store's or Android Market's
                                    search to find the application.
Metallica - The Day That Never Comes
Transcribed by Exo M7 (jd0922[at]yahoo[dot]com)
8/21/08-8/22/08
Updated 9/5/08
Updated 10/14/08 with parts from my Power Tab for better accuracy.

Intro

Guitar 1 (Clean guitar w/chorus)

1st:-------12----------12----------12----------12----|
2nd:----13----13----13----13----12----12----12----12-|
3rd:-14----------14----------12----------12----------|
4th:-------------------------------------------------|
5th:-------------------------------------------------|
6th:-------------------------------------------------|

1st:-------14----------14----------12----------12----|
2nd:----15----15----15----15----13----13----13----13-|
3rd:-12----------12----------14----------14----------|
4th:-------------------------------------------------|
5th:-------------------------------------------------|
6th:-------------------------------------------------| x2

Guitar 2 (Lead electric w/overdrive)

1st:-----------------------------------------|
2nd:-----------------------------------------|
3rd:-7--7/9-------------7--7/9---------------|
4th:--------7-7-7/9-5~----------7-7-7/9--7~--|
5th:-5--5/7-------------5--5/7---------------|
6th:--------5-5-5/7-3-----------5-5-5/7--5---| x2

1st:---------------------------------------------------------|
2nd:---------------------------------------------------------|
3rd:-7--7/9--------------------------------------------------|
4th:--------7-7-7/9-5--5-5/7-7-7/9-9-9/10-9-5/7--7h9-10-9p7--|
5th:-5--5/7--------------------------------------------------|
6th:--------5-5-5/7-3--3-3/5-5-5/7-7-7/8--7-3/5--------------|

             | 3 | | 3 | | 3 |      | 3 |
1st:----------------------------------------------------|
2nd:----------------------------------------------------|
3rd:-------------------5---5-7-5----5---------7-9-7-----|
4th:-5-7-7---5-7-9-7-9---9--------9---9/-9-10-------10--|
5th:----------------------------------------------------|
6th:----------------------------------------------------|

1st:------------------------|
2nd:-----------------8--10~-|
3rd:-7--9--10--9--10--------|
4th:------------------------|
5th:------------------------|
6th:------------------------|

Verse 1

Guitar 1 (clean)

1st:-----------------------------------------------------------------|
2nd:-----1---0--------------------------1---0-----1-----1---0--------|
3rd:---2-------2---0------0-------0-----------2-------0-------0---2--|
4th:--------------------0-------0------------------------------------|
5th:-0-----0-----0----2-------2-------2-------------3-----3-----3----|
6th:----------------3---------------0-----------0--------------------| x8

Chorus 1

Guitar 3 (rhythm w/distortion)

1st:------------------------------------0-------------|
2nd:------------------------------------0-------------|
3rd:-2---2-2---------0----0-0-----------0-------------|
4th:-2---2-2---------0----0-0--------2--2---5-5--5-5--|
5th:-0---0-0-xx-3-2--x----x-x--------2------3-3--2-2--|
6th:-----------------3----3-3-xx-5-3-0----------------| x4

Guitar 2 (lead w/overdrive)

1st:---------------------------------------------------|
2nd:---------------------------------------------------|
3rd:-5~------5-5h7-5-4~------4-4h5-4--------5-5--5-5---|
4th:---------------------------------5-----------------|
5th:---------------------------------------------------|
6th:---------------------------------------------------| x2

1st:----------------------------|
2nd:----------------------------|
3rd:-------------------0-1-2-1--|
4th:-------------0-2-3----------|
5th:-------0-2-3----------------|
6th:-0-3-4----------------------|

Verse 2

Guitar 2 (lead w/overdrive)

1st:-----------------------------------------|
2nd:-----------------------------------------|
3rd:-7--7/9-------------7--7/9---------------|
4th:--------7-7-7/9-5~----------7-7-7/9--7~--|
5th:-5--5/7-------------5--5/7---------------|
6th:--------5-5-5/7-3-----------5-5-5/7--5---| x2

1st:---------|
2nd:---------|
3rd:---------|
4th:-7h9p7~--|
5th:---------|
6th:---7-5---|

Guitar 1 (clean)

1st:-----------------------------------------------------------------|
2nd:-----1---0--------------------------1---0-----1-----1---0--------|
3rd:---2-------2---0------0-------0-----------2-------0-------0---2--|
4th:--------------------0-------0------------------------------------|
5th:-0-----0-----0----2-------2-------2-------------3-----3-----3----|
6th:----------------3---------------0-----------0--------------------| x4

Chorus 2

Guitar 3 (rhythm w/distortion)

1st:------------------------------------0-------------|
2nd:------------------------------------0-------------|
3rd:-2---2-2---------0----0-0-----------0-------------|
4th:-2---2-2---------0----0-0--------2--2---5-5--5-5--|
5th:-0---0-0-xx-3-2--x----x-x--------2------3-3--2-2--|
6th:-----------------3----3-3-xx-5-3-0----------------| x4

Guitar 2 (lead w/overdrive)

1st:---------------------------------------------------|
2nd:---------------------------------------------------|
3rd:-5~------5-5h7-5-4~------4-4h5-4--------5-5--5-5---|
4th:---------------------------------5-----------------|
5th:---------------------------------------------------|
6th:---------------------------------------------------| x2

1st:----------------------------|
2nd:----------------------------|
3rd:-------------------0-1-2-1--|
4th:-------------0-2-3----------|
5th:-------0-2-3----------------|
6th:-0-3-4----------------------|

Bridge

1st:-------------------------------------------------|
2nd:-------------------------------------------------|
3rd:----------------------------2--------5--------4--|
4th:-------------5--------------2--------5--------4--|
5th:-------0-2-3-5--------0-2-3-0--------3--------2--|
6th:-0-3-4-------3--0-3-4----------0-3-4----0-3-4----|

1st:----------------------------|
2nd:----------------------------|
3rd:-------------------0-1-2-1--|
4th:-------------0-2-3----------|
5th:-------0-2-3----------------|
6th:-0-3-4----------------------|

1st:---------------------------------|
2nd:---------------------------------|
3rd:---------------------------------|
4th:-5---2---4---2---5---2---4---2---|
5th:-3---2---2---2---3---2---2---2---|
6th:-----0-------0-------0-------0/--|

1st:---------------------------------------------------------------------|
2nd:---------------------------------------------------------------------|
3rd:---------------------------------------------------------------------|
4th:---------------------------------------------------------------------|
5th:-7-7---10-7-10--7-7---10-7-10--7-7---10-7-10---9-8-------------------|
6th:-0-0---0--0-0---0-0---0--0-0---0-0---0--0-0----7-6-0-0-0-0-0-0-3-0-2-| x4

1st:--------------------------------------------------------------------------|
2nd:--------------------------------------------------------------------------|
3rd:--------------------------------------------------------------------------|
4th:-----------------------------------------2-4---4-6-2-6-7-4--7-7-7--7-7-7--|
5th:-4-4----------4-4----------4-4-----------0-2-6-2-4-0-4-5-2--5-5-5--5-5-5--|
6th:-2-2---5-2-5--2-2---5-2-5--2-2---5-2-5-------4----------------------------|

1st:----------------------------|
2nd:----------------------------|
3rd:-------------------0-1-2-1--|
4th:-------------0-2-3----------|
5th:-------0-2-3----------------|
6th:-0-3-4----------------------| x2

(drums)

1st:------------------------------------------------------------------------------------------|
2nd:------------------------------------------------------------------------------------------|
3rd:------------------------------------------------------------------------------------------|
4th:---------------------------------------------------------------------------------------1~-|
5th:------------------------------------------------------------------------------------------|
6th:-0-0-0-0-0-0-0-0-0-0---0-0-0-0-0-0-0-0-0-0---0-0-0-0-1p0---0-0-0-0-1p0--0-0-0-0-1p0-0-0---| x3

|----------------|----------------|----------------|-----------------|
|----------------|----------------|----------------|-----------------|
|-9--9-9-9-7-----|-7--7-7-7-------|----------------|-----------------|
|------------9---|----------9-7---|-9--9-9-9-7-5---|-7-5-----5-------|
|----------------|----------------|----------------|-----7-----7-5---|
|----------------|----------------|----------------|-----------------|
|
|----------------|----------------|----------------|-----------------|
|-8--8-8-8-7-----|-7--7-7-7-------|----------------|-----------------|
|------------9---|----------9-7---|-9--9-9-9-7-----|-7---------------|
|----------------|----------------|------------9---|---9-7---9-7-5---|
|----------------|----------------|----------------|-----------------|
|----------------|----------------|----------------|-----------------|
|
|----------------|----------------|----------------|-----------------|
|----------------|----------------|----------------|-----------------|
|----------------|----------------|----------------|-----------------|
|-2--------------|-4--------------|-5--------------|-----------------|
|-2--------------|-4--------------|-5--------------|-----------------|
|-0--0-0-0-0-0-0-|-2--2-2-2-2-2-2-|-3--3-3-3-3-3-3-|-3-3-3-3-3-3-3-3-|


|---------------|---------------|----------------|-------------|
|---------------|---------------|----------------|-------------|
|-9--9-9-9-7----|-7--7-7-7------|----------------|-9--7--5-7---|
|------------9--|----------9-7--|-9--9-9-9-7-5---|-------------|
|---------------|---------------|----------------|-------------|
|---------------|---------------|----------------|-------------|
|
|---------------|---------------|----------------|-------------|
|-8--8-8-8-7----|-7--7-7-7------|----------------|-8--7----7---|
|------------9--|----------9-7--|-9--9-9-9-7-----|-------9-----|
|---------------|---------------|------------9---|-------------|
|---------------|---------------|----------------|-------------|
|---------------|---------------|----------------|-------------|
|
|---------------|---------------|----------------|-------------|
|---------------|---------------|----------------|-------------|
|-5----------7--|-4----------7--|----------------|-------------|
|-5----------7--|-4----------7--|-7--------------|-5--4----4---|
|-3--3-3-3-3-5--|-2--2-2-2-2-5--|-7--------------|-5--4--2-4---|
|---------------|---------------|-5--5-5-5-5-5-5-|-3--2--0-2---|


|----------------|----------------|----------------|-----------------|
|-8--8-8-8-7-----|-7--7-7-7-------|----------------|-----------------|
|------------9---|----------9-7---|-9--9-9-9-7-----|-7---------------|
|----------------|----------------|------------9---|---9-7---9-7-5---|
|----------------|----------------|----------------|-----------------|
|----------------|----------------|----------------|-----------------|
|
|-7--7-7-7-5-----|-5--5-5-5-------|----------------|-----------------|
|------------8---|----------8-7---|-8--8-8-8-7-----|-7---------------|
|----------------|----------------|------------9---|---9-7---9-7-----|
|----------------|----------------|----------------|-------------9---|
|----------------|----------------|----------------|-----------------|
|----------------|----------------|----------------|-----------------|
|
|----------------|----------------|----------------|-----------------|
|----------------|----------------|----------------|-----------------|
|----------------|----------------|----------------|-----------------|
|-2--------------|-4--------------|-5--------------|-----------------|
|-2--------------|-4--------------|-5--------------|-----------------|
|-0--0-0-0-0-0-0-|-2--2-2-2-2-2-2-|-3--3-3-3-3-3-3-|-3-3-3-3-3-3-3-3-|


|--7---7--7--7--5-----|--5---5--5--5--------|
|------------------8--|---------------8--7--|
|---------------------|---------------------|
|---------------------|---------------------|
|---------------------|---------------------|
|---------------------|---------------------|
|
|-15--15-15-15-14-12--|-14--14-14-14-12-10--|
|---------------------|---------------------|
|---------------------|---------------------|
|---------------------|---------------------|
|---------------------|---------------------|
|---------------------|---------------------|
|
|---------------------|---------------------|
|---------------------|---------------------|
|---------------------|---------------------|
|---------------------|---------------------|
|---------------------|------------------5--|
|--3---3--3--3--2--0--|--2---2--2--2--0-----|


|--------------------|--------------------|
|--8---8--8--8--7----|--------------------|
|-----------------9--|-9-11-9-7--7-9-7-5--|
|--------------------|--------------------|
|--------------------|--------------------|
|--------------------|--------------------|
|
|-12--12-12-12-10-8--|-8h10p8-7--7h8p7-5--|
|--------------------|--------------------|
|--------------------|--------------------|
|--------------------|--------------------|
|--------------------|--------------------|
|--------------------|--------------------|
|
|--------------------|--------------------|
|--------------------|--------------------|
|--------------------|--------------------|
|--------------------|--------------------|
|--7---7--7--7--5----|--------------------|
|-----------------8--|-8h10p8-7--7h8p7-5--|


|-------------------|----------------|
|-------------------|-0-5-5-0-8-8-0--|
|-5h7p5-4--4h5p4-2--|----------------|
|-------------------|----------------|
|-------------------|----------------|
|-------------------|----------------|
|
|-5h7p5-3--3h5p3-2--|-0-3-3-0-7-7-0--|
|-------------------|----------------|
|-------------------|----------------|
|-------------------|----------------|
|-------------------|----------------|
|-------------------|----------------|
|
|-------------------|----------------|
|-------------------|----------------|
|-------------------|----------------|
|-------------------|----------------|
|-------------------|----------------|
|-5h7p5-3--3h5p3-2--|-0-3-3-0-7-7-0--|

1st:---------------------------------|
2nd:---------------------------------|
3rd:---------------------------------|
4th:-5---2---4---2---5---2---4---2---|
5th:-3---2---2---2---3---2---2---2---|
6th:-----0-------0-------0-------0/--|

1st:---------------------------------------------------------------------------------------|
2nd:---------------------------------------------------------------------------------------|
3rd:---------------------------------------------------------------------------------------|
4th:---------------------------------------------------------------------------------------|
5th:---------------------------------------------------------------------------------------|
6th:-0h5h8-0h5h8-0h5h8-0h5h8-0h5h8-0h5h8-0h5h8-0h5h8-0h5h7-0h5h7-0h5h7-0h5h7-0h4h7-0h4h7-0-| x4

1st:-0h5h8-0h5h8-0h5h8-0h5h8-0h5h8-0h5h8-0h5h8-0h5h8-0h5h7-0h5h7-0h5h7-0h5h7-0h4h7-0h4h7-0-|
2nd:---------------------------------------------------------------------------------------|
3rd:---------------------------------------------------------------------------------------|
4th:---------------------------------------------------------------------------------------|
5th:---------------------------------------------------------------------------------------|
6th:---------------------------------------------------------------------------------------| x2

1st:--------------------7-7------|
2nd:------------5-8-8-5-----8----|
3rd:-----------------------------|
4th:-5---2---4-------------------|
5th:-3---2---2-------------------|
6th:-----0-----------------------|
(below is the harmony part)
1st:-----------------------------|
2nd:------------0-5-5-0-8-8-5----|
3rd:-----------------------------|
4th:-----------------------------|
5th:-----------------------------|
6th:-----------------------------|

1st:---
2nd:---
3rd:---
4th:-2-
5th:-2-
6th:-0-

(drums)

---

1st:--------------------------------------|
2nd:--------------------------------------|
3rd:-----------------------7--------------|
4th:-4-2-----4-2-----2-4-7-5-7/9-7--------|
5th:-2-0-5-2-2-0-5-2-0-2-5---5/7-5-7/9-7--|
6th:-----3-0-----3-0---------------5/7-5--|

1st:----------------------------------|
2nd:----------------------------------|
3rd:-----------------------7----------|
4th:-4-2-----4-2-----2-4-7-5-----4----|
5th:-2-0-5-2-2-0-5-2-0-2-5---2-5-2-5--|
6th:-----3-0-----3-0---------0-3---3--| x2

Solo

1st:---------------------------------------------------------------|
2nd:---------------------------------------------------------------|
3rd:----------------------------------------------7----------7-----|
4th:-9///^(12)---10^(12)-10^(12)-10^(12)9p----7/9---9-9/-7-9---9-9-|
5th:---------------------------------------9-----------------------|
6th:---------------------------------------------------------------|

1st:--------------------------------------|
2nd:-------------------------------8--10--|
3rd:-----7-----7-9^(11)-7---7-9-11--------|
4th:-7/9---9-9------------9---------------|
5th:--------------------------------------|
6th:--------------------------------------|

|------------------|-/17-15---14------------17-15---14------------|
|-12---------------|-------------15-14---12------------15-14---12-|
|------------------|----------------------------------------------|
|------------------|----------------------------------------------|
|------------------|----------------------------------------------|
|------------------|----------------------------------------------|
|
|------------------|----------------------------------------------|
|------------------|----------------------------------------------|
|------------------|----------------------------------------------|
|------------------|----------------------------------------------|
|------------------|----------------------------------------------|
|--0-0-0-0-0-0-0-0-|---0----0-----0----0-----0----0-----0----0----|


|-17-15---14------------17-15---14------------|---------------------------------------------|
|------------15-14---12------------15-14---12-|-17-15---14------------17-15---14------------|
|---------------------------------------------|------------16-14---12------------16-14---12-|
|---------------------------------------------|---------------------------------------------|
|---------------------------------------------|---------------------------------------------|
|---------------------------------------------|---------------------------------------------|
|
|---------------------------------------------|---------------------------------------------|
|---------------------------------------------|---------------------------------------------|
|---------------------------------------------|---------------------------------------------|
|---------------------------------------------|---------------------------------------------|
|---------------------------------------------|---------------------------------------------|
|--0----0-----0----0-----0----0-----0----0----|--0----0-----0----0-----0----0-----0----0----|


|-------------------------|------------------------------------|
|-15-14----14-------------|------------------------------------|
|-------16----16-14----14-|-14b16-(14)------14------------12---|
|-------------------17----|--------------17----17-(17)-14------|
|-------------------------|------------------------------------|
|-------------------------|------------------------------------|
|
|-------------------------|------------------------------------|
|-------------------------|------------------------------------|
|-------------------------|------------------------------------|
|-------------------------|------------------------------------|
|-------------------------|------------------------------------|
|--0--0--0--0--0--0--0--0-|--0---------0-----0--0---0---0--0-0-|


|------------------------|------------------|
|------------------------|------------------|
|-12----11----10----9----|-8----7---6---5---|
|----14----13----12---11-|---10---9---8---7-|
|------------------------|------------------|
|------------------------|------------------|
|
|------------------------|------------------|
|------------------------|------------------|
|------------------------|------------------|
|------------------------|------------------|
|------------------------|------------------|
|--0--0--0--0--0--0-0--0-|-0--0-0-0-0-0-0-0-|


|-----------------|--------------------|
|-----------------|-8---8-10-----10-10-|
|-7---7-9-----9-9-|---9----------------|
|---9-------------|--------------------|
|-----------------|--------------------|
|-----------------|--------------------|
|
|-----------------|--------------------|
|-----------------|--------------------|
|-----------------|--------------------|
|-----------------|--------------------|
|-0-0-0-0-0-0-0-0-|-0-0-0--0-0-0--0--0-|
|-----------------|--------------------|


|-8----8-10-----(10)---|---------------------------|
|---10-----------------|-10-----(10)--11-----(11)--|
|----------------------|-12b14--(12)--13b15--(13)--|
|----------------------|---------------------------|
|----------------------|---------------------------|
|----------------------|---------------------------|
|
|----------------------|---------------------------|
|----------------------|---------------------------|
|----------------------|--2------------3-----------|
|----------------------|--2------------3-----------|
|-0--0-0--0-0-0---0--0-|--0------------1-----------|
|----------------------|---------------------------|


||--14----------14----------|-14----------14----------|
||o----12-10-12----12-10-12-|----12-10-12----12-10-12-|
||--------------------------|-------------------------|
||--------------------------|-------------------------|
||o-------------------------|-------------------------|
||--------------------------|-------------------------|
|
||--------------------------|-------------------------|
||o-------------------------|-------------------------|
||---4----------------------|-------------------------|
||---4----------------------|-------------------------|
||o--2--2--2--2--2--2--2--2-|--2--2--2--2--2--2--2--2-|
||--------------------------|-------------------------|


|-15----------15----------|-15----------15-----------|
|----13-12-13----13-12-13-|----13-12-13----13-12-13--|
|-------------------------|--------------------------|
|-------------------------|--------------------------|
|-------------------------|--------------------------|
|-------------------------|--------------------------|
|
|-------------------------|--------------------------|
|-------------------------|--------------------------|
|-------------------------|--------------------------|
|-------------------------|--------------------------|
|-------------------------|--------------------------|
|--3--3--3--3--3--3--3--3-|--3--3--3--3--3--3--3--3--|


|-17----------17----------|-17----------17----------|
|----15-13-15----15-13-15-|----15-13-15----15-13-15-|
|-------------------------|-------------------------|
|-------------------------|-------------------------|
|-------------------------|-------------------------|
|-------------------------|-------------------------|
|
|-------------------------|-------------------------|
|-------------------------|-------------------------|
|-------------------------|-------------------------|
|-------------------------|-------------------------|
|-------------------------|-------------------------|
|--5--5--5--5--5--5--5--5-|--5--5--5--5--5--5--5--5-|


|-19----------17----------|-19----------17-----------||
|----17-15-17----17-15-17-|----17-15-17----17-15-17-o||
|-------------------------|--------------------------||
|-------------------------|--------------------------||
|-------------------------|-------------------------o||
|-------------------------|--------------------------||
|
|-------------------------|--------------------------||
|-------------------------|-------------------------o||
|-------------------------|--------------------------||
|-------------------------|--------------------------||
|-------------------------|-------------------------o||
|--2--2--2--2--2--2--2--2-|--2--2--2--2--2--2--2--2--||


|-24-22---21-23-21---20-22-20---19-21-19---18-|-20-18---17-19-17---16-18-16---15-17-15---14-|
|---------------------------------------------|---------------------------------------------|
|---------------------------------------------|---------------------------------------------|
|---------------------------------------------|---------------------------------------------|
|---------------------------------------------|---------------------------------------------|
|---------------------------------------------|---------------------------------------------|
|
|---------------------------------------------|---------------------------------------------|
|---------------------------------------------|---------------------------------------------|
|---------------------------------------------|---------------------------------------------|
|---------------------------------------------|---------------------------------------------|
|---------------------------------------------|---------------------------------------------|
|--0----0-----0----0-----0----0-----0----0----|--0----0-----0----0-----0----0-----0----0----|


|-16-14---13-15-13---12-14-12---11-13-12---11-|-10-8---7--------------------|
|---------------------------------------------|----------10-8---7-----------|
|---------------------------------------------|-------------------7---------|
|---------------------------------------------|-----------------------------|
|---------------------------------------------|-----------------------------|
|---------------------------------------------|-----------------------------|
|
|---------------------------------------------|-----------------------------|
|---------------------------------------------|-----------------------------|
|---------------------------------------------|-----------------------------|
|---------------------------------------------|-----------------------------|
|---------------------------------------------|-----------------------------|
|--0----0-----0----0-----0----0-----0----0----|--0---0----0---0---0-0-0-0---|


|---------------------|-------------------------|
|---------10b12-------|-------------15b17-------|
|-----7h9-------------|-------12h14-------------|
|-7h9-----------------|-12h14-------------------|
|---------------------|-------------------------|
|---------------------|-------------------------|
|
|---------------------|-------------------------|
|---------------------|-------------------------|
|---------------------|-------------------------|
|---------------------|-------------------------|
|---------------------|-------------------------|
|-3-0-0-0--0----0-0-0-|--3--0--0--0--0----0-0-0-|


|----------15-17---19---|-20---22---22b24-------|
|-------17--------------|-----------------------|
|----16-----------------|-----------------------|
|-14--------------------|-----------------------|
|-----------------------|-----------------------|
|-----------------------|-----------------------|
|
|-----------------------|-----------------------|
|-----------------------|-----------------------|
|-----------------------|-----------------------|
|-----------------------|-----------------------|
|-----------------------|-----------------------|
|--3--0--0--0--0-0--0-0-|--3-0--0-0--0----0-0-0-|

Ending

1st:---------------------------------------------------------------------------------------|
2nd:---------------------------------------------------------------------------------------|
3rd:---------------------------------------------------------------------------------------|
4th:---------------------------------------------------------------------------------------|
5th:---------------------------------------------------------------------------------------|
6th:-0h5h8-0h5h8-0h5h8-0h5h8-0h5h8-0h5h8-0h5h8-0h5h8-0h5h7-0h5h7-0h5h7-0h5h7-0h4h7-0h4h7-0-| x4

1st:-0h5h8-0h5h8-0h5h8-0h5h8-0h5h8-0h5h8-0h5h8-0h5h8-0h5h7-0h5h7-0h5h7-0h5h7-0h4h7-0h4h7-0-|
2nd:---------------------------------------------------------------------------------------|
3rd:---------------------------------------------------------------------------------------|
4th:---------------------------------------------------------------------------------------|
5th:---------------------------------------------------------------------------------------|
6th:---------------------------------------------------------------------------------------| x2

1st:------------------------------------------------------------------------|
2nd:------------------------------------------------------------------------|
3rd:------------------------------------------------------------------------|
4th:-5-------4-------5-------4------------------5-------4-------------------|
5th:-3---2---2---2---3---2---2------------------3---2---2-------------------|
6th:-----0-------0-------0------3-2-0-0-3-2-0-0-----0------3-2-0-0-3-2-0-0--|

1st:-------------------------------------------|
2nd:-------------------------------------------|
3rd:-------------------------------------------|
4th:-5--4--10-9--------2--5--4--10-9--------2--|
5th:-3--2--8--7--5--4--2--3--2--8--7--5--4--2--|
6th:-------------3--2--0--------------3--2--0--|

1st:----------------------|
2nd:----------------------|
3rd:----------------------|
4th:-0---4----------------|
5th:-0---4---5-4-3-5-4-3--|
6th:-----2---5-4-3-5-4-3--| x2

1st:----------------------|
2nd:----------------------|
3rd:----------------------|
4th:-5--4--10-9--------2--|
5th:-3--2--8--7--5--4--2--|
6th:-------------3--2--0--|

1st:-0h5h8-0h5h8-0h5h8-0h5h8-0h5h8-0h5h8-0h5h8-0h5h8-0h5h7-0h5h7-0h5h7-0h5h7-|
2nd:-------------------------------------------------------------------------|
3rd:-------------------------------------------------------------------------|
4th:-------------------------------------------------------------------------|
5th:-------------------------------------------------------------------------|
6th:-------------------------------------------------------------------------|

1st:------------------------------------------------------------------------------------|
2nd:------------------------------------------------------------------------------------|
3rd:------------------------------------------------------------------------------------|
4th:------------------------------------------------------------------------------------|
5th:--------------------------------------------------------------------------8-8-8-8-7-|
6th:-0h5h8-0h5h8-0h5h8-0h5h8-0h5h8-0h5h8-0h5h8-0h5h8-0h5h7-0h5h7-0h5h7-0h5h7--8-8-8-8-7-|

| /  slide up
| \  slide down
| h  hammer-on
| p  pull-off
| ~  vibrato
| +  harmonic
| x  Mute note
===============================================================================
comments
print report bad tab
17 comments total. Showing first comments.
+2 reply
marcelaguiar wrote on August 22 2008, 12:50 pm

Not a bad tab. I'm just so excited this song came out today!
This is definately thier best song of their newer stuff. Something tells me that Death Magnetic will be way better than St. Anger.
It's much more like thier old stuff which is a relief.

Thanks for getting this tab out so soon even though it's not complete..

0 reply
marcelaguiar wrote on August 22 2008, 01:00 pm

The first part sounds more like this...I hope it doesn't get messed up.


1st:-----------------------------------------|
2nd:-----------------------------------------|
3rd:-7--7/9-------------7--7/9---------------|
4th:--------7-7-7/9-5~----------7-7-7h9--7~--|
5th:-5--5/7-------------5--5/7---------------|
6th:--------5-5-5/7-3~----------5-5-5/7--5~--|

+4 reply
marcelaguiar wrote on August 22 2008, 01:03 pm

Sorry I know that that correction above isn't correct, it's just showing that he plays octave notes not single notes.

I want to post or [tab]
guest
You may want to rate the tab now too:
select rating
Please do not post tabs as comments. Select "correction" instead!