Oops, an error
Loading. Please wait.

The Day That Never Comes Bass Tab

ver3
ver3
More versions @911Tabs.com
14,264 views 3 this week
1 commentread comment
1 2 3 4 5
accurate
x 10
Autoscroll
+/-
esc
set tempo
stop
Contributor
Hey! There's an official Ultimate Guitar app which is ideal
for learning songs when you're away from computer. Get the app
WARNING: You are trying to view
                                    content from Ultimate-Guitar.com
                                    in an unauthorized application,
                                    which is prohibited.

                                    Please use an official Ultimate
                                    Guitar Tabs application for iPhone,
                                    iPad or Android to access legitimate
                                    chords, guitar, bass, and drum tabs
                                    from Ultimate-Guitar.com database.

                                    Type "ultimate guitar tabs" in Apple
                                    App Store's or Android Market's
                                    search to find the application.
Song     :The day that never comes (Bass)
Artist   :Metallica
Tabbed By:Chirantan
E-Mail   :chirantan.pal@gmail.com

TUNING   : E A D G

Intro:
|-----|
|-----|
|-----|
|-----|


|---------|---------|---------|------------|
|---------|---------|---------|------------|
|---------|---------|---------|------------|
|---------|---------|---------|----5--5--5-|

                                                3x
||-----------|---------|---------|--------------||
||-----------|---------|---------|--------------||
||-----------|---------|---------|--------------||
||--5--------|---------|---------|----5--5--5---||


|----------|---------|------------|-------------|
|----------|---------|------------|-------------|
|----------|---------|------------|-3-----------|
|-5--------|---------|----5--5--5-|---0-1-0-1-3-|


|----------|---------|---------|-----|
|----------|---------|---------|-----|
|----------|---------|---------|-----|
|-5--------|---------|---------|-----|


|----------|----------|----------|-----------|
|----------|----------|----------|-----------|
|----------|----------|----------|------5----|
|-5--------|-3--------|-0--------|-8---------|


Verse:
||---------------|--------------|--------------|----------------||
||---------------|--------------|--------------|----------------||
||---------------|--------------|--------------|-3--3--2--------||
||--5--5--5-5--4-|-3--3--3-3--3-|-0--0--0-0--0-|---------3--5---||


|---------------|--------------|--------------|--------------|
|----------7----|--------------|--------------|--------------|
|------5/7------|--------------|--------------|-3--3--2------|
|-5--5--------0-|-3--3--3-3--3-|-0--0--0-0--0-|---------3--5-|


||---------------|--------------|--------------|----------------||
||---------------|--------------|--------------|----------------||
||---------------|--------------|--------------|-3--3--2--------||
||--5--5--5-5--4-|-3--3--3-3--3-|-0--0--0-0--0-|---------3--5---||


|--------------|--------------|-----------------|-----------------|
|--------------|--------------|-----------------|-----------------|
|--------------|--------------|-----------------|-3-3-3-3-5-5-5-5-|
|-5--5--5-5--4-|-3--3--3-3--3-|-0-0-0-0-0-0-0-0-|-----------------|


Chorus:
                                                                4x
||---------------|--------------|-------------|-----------------||
||---------------|--------------|--------2--2-|-----------------||
||--0----0-3-0---|--------2-----|-------------|---3-3----3-3----||
||-------------3-|-3----3---3-0-|-0----0------|-0------0--------||


Bridge:
|---------------------0-1-|----------|-----------|
|-------------0-2-3-3-----|----------|-----------|
|-------0-2-3-------------|----------|-----------|
|-0-1-4-------------------|-0--------|-----0-3---|


||--------------|-------------|-------------|
||--------------|-------------|-------------|
||--------------|-------------|-------------|
||--5--5---5--5-|-3--3---3--0-|-3--3---3--0-|


|----------------||----------------------|
|----------------||----------------------|
|-------5/7-5/7--||----------------------|
|-5--5-----------||-/17----15h17-15-12---|


Verse:
|--------------|--------------|--------------|--------------|
|--------------|--------------|--------------|--------------|
|--------------|--------------|--------------|-3--3--2------|
|-5--5--5-5--4-|-3--3--3-3--3-|-0--0--0-0--0-|---------3--5-|


|--------------|--------------|--------------|---------------|
|--------------|--------------|--------------|---------------|
|--------------|--------------|--------------|-3--3--3-5-5-5-|
|-5--5--5-5--4-|-3--3--3-3--3-|-0--0--0-0--0-|---------------|


|---------------|--------------|--------------|--------------|
|----------7----|--------------|--------------|--------------|
|------5/7------|--------------|--------------|-3--3--2------|
|-5--5--------0-|-3--3--3-3--3-|-0--0--0-0--0-|---------3--5-|


|--------------|---------------|-----------------|-----------------|
|--------------|---------------|-----------------|-----------------|
|--------------|-------------3-|-----------------|-3-3-3-3-5-5-5-5-|
|-5--5--5-5--4-|-3--3--3-5-5---|-0-0-0-0-0-0-0-0-|-----------------|


Chorus:
||---------------|--------------|-------------|-----------------||
||---------------|--------------|--------2--2-|-----------------||
||--0----0-3-0---|--------2-----|-------------|---3-3----3-3----||
||-------------3-|-3----3---3-0-|-0----0------|-0------0--------||


Bridge:
|---------------------0-1-|----------|------------------|------------------|
|-------------0-2-3-3-----|----------|------------------|------------------|
|-------0-2-3-------------|----------|-------0-2-3------|-------0-2-3------|
|-0-1-4-------------------|-0--------|-0-1-4-------3----|-0-1-4-------5----|


|-------------------|---------------------0-1-||------------|------------||
|-------------------|-------------0-2-3-3-----||------------|------------||
|-------3--------2--|-------0-2-3-------------||------------|------------||
|-0-1-4----0-1-4----|-0-1-4-------------------||--8----0----|-7----0-----||


|---------------|---------------|---------------|--------------------|
|---------------|---------------|---------------|--------------------|
|---------------|---------------|---------------|-2-1----------------|
|-0-0-0-3--0-3--|-0-0-0-3--0-3--|-0-0-0-3--0-3--|-----0-0-0-0-0-3-3--|


Verse:
||------------------|---------------|---------------|
||------------------|---------------|---------------|
||------------------|---------------|---------------|
||--3-2-0-0-3--0-3--|-0-0-0-3--0-3--|-0-0-0-3--0-3--|

                     3x
|--------------------||-----------------|
|--------------------||-----------------|
|-2-1----------------||-2-1-------------|
|-----0-0-0-0-0-3-3--||-----0-0-0-0-0-0-|


|---------------|---------------|---------------|-------------|
|---------------|---------------|---------------|-------------|
|---------------|---------------|---------------|-------------|
|-2-2-2-5--2-5--|-2-2-2-5--2-5--|-2-2-2-5--2-5--|-5--7--4--7--|


|-----------------||--------------|--------------||---------------------2-1--|
|-----------------||--------------|--------------||-------------0-2-3-3------|
|-----------------||--------------|--------------||-------0-2-3--------------|
|-9--5--9--10--7--||-10-10--10\---|-10-10--10\---||-0-1-4--------------------|


|----------|---------------------2-1-||
|----------|-------------0-2-3-3-----||
|----------|-------0-2-3-------------||
|-0--------|-0-1-4-------------------||


|----------|------------|---------|-------------|
|----------|------------|---------|-------------|
|----------|------------|---------|-------------|
|-0--------|-(0)--------|---------|-------0-0---|


|-----|
|-----|
|-----|
|-----|


Breakdown:
||--------------------------|-----------|-------------------------|-----------|
||--------------------------|-----------|-------------------------|-----------|
||--------------------------|-----------|-------------------------|-----------|
||--0-0-0-0-0-0-0-0-0-0-0-0-|-0--0------|-0-0-0-0-0-0-0-0-0-0-0-0-|-0--0------|


|-------------------|-------------------|---------------------|-----------||
|-------------------|-------------------|---------------------|-----------||
|-------------------|-------------------|---------------------|-6---------||
|-0-0-0-0-0-0-1-0---|-0-0-0-0-0-0-1-0---|-0-0-0-0-0-0-0-0-0-0-|-----------||


|-------------------------|-----------|-------------------------|-----------|
|-------------------------|-----------|-------------------------|-----------|
|-------------------------|-----------|-------------------------|-----------|
|-0-0-0-0-0-0-0-0-0-0-0-0-|-0--0------|-0-0-0-0-0-0-0-0-0-0-0-0-|-0--0------|


Guitar Solo 1:
||--------------------|-------------------|
||--------------------|-------------------|
||--7-(7)-7-7-7-7-7-7-|-9-(9)-9-9-9-9-9-9-|
||--------------------|-------------------|


|---------------------------|--------------------------|
|---------------------------|--------------------------|
|-10-(10)-10-10-10-10-10-10-|-10-10-10-10-10-10-10-10--|
|---------------------------|--------------------------|


|---------------------------|-------------------|
|-10-(10)-10-10-10-10-10-10-|-9-(9)-9-9-9-9-9-9-|
|---------------------------|-------------------|
|---------------------------|-------------------|


|-------------------|------------------||
|-7-(7)-7-7-7-7-7-7-|-7-7-7-7-7-7-7-7--||
|-------------------|------------------||
|-------------------|------------------||


|-------------------|-------------------|-------------------|---0-0---4-4-0--|
|-7-(7)-7-7-7-7-7---|-------------------|-------------------|-2-----2--------|
|-----------------3-|-3h5p3-2--2h3p2-0--|-0h2p0-------------|----------------|
|-------------------|-------------------|-------3--3h5p3-2--|----------------|


|----------|----------|----------|----------|
|----------|----------|----------|----------|
|----------|----------|----------|----------|
|-8--------|-0--------|-7--------|-0--------|


|----------|----------|----------|------|
|----------|----------|----------|------|
|----------|----------|----------|------|
|-8--------|-0--------|-7--------|-0----|


Breakdown:
||--------------------------|-------------------------|
||--------------------------|-------------------------|
||--------------------------|-------------------------|
||--0h5h8-0h5h8-0h5h8-0h5h8-|-0h5h8-0h5h8-0h5h8-0h5h8-|


                                              4x
|-------------------------|-------------------||
|-------------------------|-------------------||
|-------------------------|-------------------||
|-0h4h7-0h4h7-0h4h7-0h4h7-|-0h4h7-0h4h7-0-----||


|----------|----------|----------|---------|----------|----------|------|
|----------|----------|----------|---------|----------|----------|------|
|----------|----------|----------|---------|----------|----------|------|
|-8--------|-0--------|-7--------|---------|-8--------|-0--------|-7----|


|---------|----------|-------------|-------------|
|---------|----------|-------------|-------------|
|---------|----------|-7-----7-----|-7-----7-----|
|---------|-0--------|----0-----0--|----0-----0--|


|-------------|-------------|---------------|
|-------------|-------------|---------------|
|-7-----7-----|-7-----7-----|-7-----7-------|
|----0-----0--|----0-----0--|----0-----0----|


||--------------|-------------|-------------|-------------|
||--------------|-------------|----------5--|-------------|
||--2--0--------|-2--0--------|-0--2--5-----|-7--5--2--0--|
||--------3--0--|-------3--0--|-------------|-------------|


|-------------|-------------|-------------|----------------||
|-------------|-------------|----------5--|----------------||
|-2--0--------|-2--0--------|-0--2--5-----|-------2--------||
|-------3--0--|-------3--0--|-------------|-0--3-----3-----||


Guitar Solo 2:
||------------------|-----------------|-----------------|-------------------||
||------------------|-----------------|-----------------|-------------------||
||--2-2-2-2-2-2-2-2-|-2-2-2-2-2-2-2-2-|-2-2-2-2-2-2-2-2-|-2-2-2-2-2-2-2-2---||
||------------------|-----------------|-----------------|-------------------||


||------------------|-----------------|-----------------|-------------------||
||------------------|-----------------|-----------------|-------------------||
||------------------|-----------------|-----------------|-------------------||
||--0-0-0-0-0-0-0-0-|-0-0-0-0-0-0-0-0-|-0-0-0-0-0-0-0-0-|-0-0-0-0-0-0-0-0---||


|-----------------|-----------------|-----------------|-----------|
|-----------------|-----------------|-----------------|-----------|
|-----------------|-----------------|-----------------|-----------|
|-5-5-5-5-5-5-5-5-|-5-5-5-5-5-5-5-5-|-5-5-5-5-5-5-5-5-|-5----6----|


||------------------|-----------------|-----------------|------------------|
||------------------|-----------------|-----------------|------------------|
||------------------|-----------------|-----------------|------------------|
||--7-7-7-7-7-7-7-7-|-7-7-7-7-7-7-7-7-|-3-3-3-3-3-3-3-3-|-3-3-3-3-3-3-3-3--|


|-----------------|-----------------|-----------------|------------------||
|-----------------|-----------------|-----------------|------------------||
|-----------------|-----------------|-----------------|------------------||
|-5-5-5-5-5-5-5-5-|-5-5-5-5-5-5-5-5-|-2-2-2-2-2-2-2-2-|-2-2-2-2-2-2-2-2--||


||------------------|-----------------|-----------------|-------------------||
||------------------|-----------------|-----------------|-------------------||
||------------------|-----------------|-----------------|-------------------||
||--0-0-0-0-0-0-0-0-|-0-0-0-0-0-0-0-0-|-0-0-0-0-0-0-0-0-|-0-0-0-0-0-0-0-0---||


||--------------------------|-------------------------|
||--------------------------|-------------------------|
||--------------------------|-------------------------|
||--0h5h8-0h5h8-0h5h8-0h5h8-|-0h5h8-0h5h8-0h5h8-0h5h8-|


                                              4x
|-------------------------|-------------------||
|-------------------------|-------------------||
|-------------------------|-------------------||
|-0h4h7-0h4h7-0h4h7-0h4h7-|-0h4h7-0h4h7-0-----||


Outro:
|----------|----------|----------|----------|
|----------|----------|----------|----------|
|----------|----------|----------|----------|
|-8--------|-0--------|-7--------|-0--------|


||-----------|----------|----------|------------------||
||-----------|----------|----------|------------------||
||-----------|----------|----------|------------------||
||--8--------|-0--------|-7--------|-3-2-0-0-3-2-0-0--||


||------------|-----------|-----------|-----------||-|
||------------|-----------|-----------|-----------||-|
||------------|-8----7----|-----------|-----------||-|
||--8----7----|-----------|-3----2----|-0---------||-|


||-----------|----------|-------------|------------||
||-----------|----------|-------------|------------||
||--5--------|----------|-5--4--3--5--|-4--3-------||
||-----------|-2--------|-------------|------------||


|-----------|-----------|-----------|----------|-------------------------|
|-----------|-----------|-----------|----------|-------------------------|
|-----------|-8----7----|-----------|----------|-------------------------|
|-8----7----|-----------|-3----2----|-0--------|-0h5h8-0h5h8-0h5h8-0h5h8-|


|-------------------------|-------------------------|--------------------||
|-------------------------|-------------------------|--------------------||
|-------------------------|-------------------------|--------------------||
|-0h5h8-0h5h8-0h5h8-0h5h8-|-0h4h7-0h4h7-0h4h7-0h4h7-|-1-1-1-1-1-0-(0)----||
comments
print report bad tab
1 comment total.
0 reply
isxixh wrote on January 21 2009, 05:33 pm

great tab!

I want to post or [tab]
guest
You may want to rate the tab now too:
select rating
Please do not post tabs as comments. Select "correction" instead!