Oops, an error
Loading. Please wait.

The End Of The Line Bass Tab

ver1
ver1

Whole song

Interactive

More versions @911Tabs.com
18,377 views 21 this week
no commentswrite comment
1 2 3 4 5
accurate
x 7
Autoscroll
+/-
esc
set tempo
stop
Contributor
Difficulty
intermediate
Hey! There's an official Ultimate Guitar app which is ideal
for learning songs when you're away from computer. Get the app
WARNING: You are trying to view
                                    content from Ultimate-Guitar.com
                                    in an unauthorized application,
                                    which is prohibited.

                                    Please use an official Ultimate
                                    Guitar Tabs application for iPhone,
                                    iPad or Android to access legitimate
                                    chords, guitar, bass, and drum tabs
                                    from Ultimate-Guitar.com database.

                                    Type "ultimate guitar tabs" in Apple
                                    App Store's or Android Market's
                                    search to find the application.
The End of the Line
Metalllica
Death Magnetic
Tuning: standard

0:00
|-----------------------------------------------------------|
|--------------------15-15-15-15-14---14-17---17-14-14-14\--|
|-----------------------------------------------------------|
|--1--0--3-3--0-(0)-----------------------------------------|

0:04                                                     (x3)
|-----------------------------------------------------------|
|-*------------------15-15-15-15-14---14-17---17-14-14-14\-*|
|-*--------------------------------------------------------*|
|-0-0-0-1--0--3-3--0-(0)------------------------------------|

0:19                               (x4) 0:29
|-------------------------------------|----------------------------------|
|-*---------------------------------*-|----------------------------------|
|-*---------------------------------*-|--2--1--4-4--2---3--2--5-5-2------|
|--1-1-1--0--0--1-2-3--0-0-0-0-0-0-0--|------------------------------0---|(

                         0:42                       (x3) 0:48
------------------------|------------------------------|----------------|
------------------------|-*--------------------------*-|----------------|
------------------------|-*--------------------5-6-7-*-|----------------|
0)---------------5/8\5--|--0--0--5h7--0--5-6-7---------|--0--0--5h7--0--|

              0:52                       (x3) 0:58
-------------|------------------------------|----------------------------|
----------7--|-*--------------------------*-|----------------------------|
------9-7----|-*--------------------5-6-7-*-|----------------------------|
5-6-7--------|--0--0--5h7--0--5-6-7---------|--0--0--5h7--0--3-3-3-3-3-3-|

       1:00                             1:05
------|--------------------------------|---------------------------------|
------|--------------------------------|-*-------------------------------|
------|--------------------------------|-*-------------------------------|
-3-3--|--0--5/6----5/6----5/7---5/6----|---5/6-0-0-0-0-5/6-0-0-5/7-0-0-0-|

 (x3) 1:11                                       1:14
----|-------------------------------------------|----------------------|
--*-|-------------------------------------------|-*--------------------|
--*-|-------------------------------------------|-*--------------------|
-0--|--2-0-0-0-0-3-0-0-0-0-5-0-0-0-0-6-0-0-0-0--|--5/6-0-0-0-0-0-0-0-0-|

-------------------------------------------------------------------------|
-------------------------------------------------------------------------|
-------------------------------------------------------------------------|
0-0--3--5/6-0-0-0-0-0-0-0-0-0-0-0-0--3--5/6-0-0-0-0-0-0-0-0-0-0-0-3--2-0-|

                                       1:32                    1:34
--------------------------------------|-----------------------|----------|
------------------------------------*-|-----------------------|-*--------|
------------------------------------*-|-----------------------|-*--------|
-0-0-0-3-0-0-0-0-5-0-0-0-0-6-0-0-0-0--|--0--5/6----5/6---5/7--|--0--0-5--|h

                (x3) 1:40                           1:42
-------------------|-------------------------------|---------------------|
-----------------*-|-------------------------------|-*-------------------|
------------5-6-7*-|-------------------------------|-*-------------------|
7--0--5-6-7--------|--0--0-5h7-0--3-3-3-3-3-3-3-3--|--0--5/6-0-0-0-0-5/6-|

       (x3) 1:49                                       1:51
----------|-------------------------------------------|------------------|
--------*-|-------------------------------------------|-*----------------|
--------*-|-------------------------------------------|-*----------------|
-0-0-5/7--|--2-0-0-0-0-3-0-0-0-0-5-0-0-0-0-6-0-0-0-0--|--5/6-0-0-0-0-0-0-|

-------------------------------------------------------------------------|
-------------------------------------------------------------------------|
-------------------------------------------------------------------------|
-0-0-0-0-0-0--3--5/6-0-0-0-0-0-0-0-0-0-0-0-0--3--5/6-0-0-0-0-0-0-0-0-0-0-|

                                                   2:10
--------------------------------------------------|----------------------|
------------------------------------------------*-|----------------------|
------------------------------------------------*-|----------------------|
-0-0--3--2-0-0-0-0-3-0-0-0-0-5-0-0-0-0-6-0-0-0-0--|--0----5/6----5/6---5-|

     2:12                                 (x10) 2:33
----|-----------------------------------------|------------------------|
----|-*-------------------------------------*-|------------------------|
----|-*-------------------------------------*-|------------------------|
/7--|--0h3h5-0h3h5-0h3h5-0h3h5-0h3h5-5-5-5-5--|--3---3---3---3---3--1--|

2:35                        (x3) 2:41
|------------------------------|----------------------------|
|-*--------------------------*-|--------------------------7-|
|-*--------------------5-6-7-*-|----------------------9-7---|
|--0--0--5h7--0--5-6-7---------|--0--0--5h7--0--5-6-7-------|

2:44                        (x3) 2:50
|------------------------------|---------------------------------|
|-*--------------------------*-|---------------------------------|
|-*--------------------5-6-7-*-|---------------------------------|
|--0--0--5h7--0--5-6-7---------|--0--0--5h7--0--3-3-3-3-3-3-3-3--|

2:52                              2:57
|--------------------------------|---------------------------------|
|--------------------------------|-*-------------------------------|
|--------------------------------|-*-------------------------------|
|--0--5/6----5/6----5/7---5/6----|---5/6-0-0-0-0-5/6-0-0-5/7-0-0-0-|

 (x3) 3:03                                       3:06
----|-------------------------------------------|----------------------|
--*-|-------------------------------------------|-*--------------------|
--*-|-------------------------------------------|-*--------------------|
-0--|--2-0-0-0-0-3-0-0-0-0-5-0-0-0-0-6-0-0-0-0--|--5/6-0-0-0-0-0-0-0-0-|

-------------------------------------------------------------------------|
-------------------------------------------------------------------------|
-------------------------------------------------------------------------|
0-0--3--5/6-0-0-0-0-0-0-0-0-0-0-0-0--3--5/6-0-0-0-0-0-0-0-0-0-0-0-3--2-0-|

                                       3:23
--------------------------------------|-----------------------|
------------------------------------*-|-----------------------|
------------------------------------*-|-----------------------|
-0-0-0-3-0-0-0-0-5-0-0-0-0-6-0-0-0-0--|--0--5/6----5/6---5/7--|

3:26                                  (x10) 3:47
|-----------------------------------------|------------------------|
|-*-------------------------------------*-|------------------------|
|-*-------------------------------------*-|------------------------|
|--0h3h5-0h3h5-0h3h5-0h3h5-0h3h5-5-5-5-5--|--3---3---3---3---3--1--|

3:49                 (x12) 4:18
|------------------------|----------------------------------------------|
|-*--------------------*-|-*--------------------------------------------|
|-*--------------------*-|-*--------------------------------------------|
|--0---0---0---0--4b-4b--|--0---0-0-0-0--0--0-0-0-0---5---5-5-5-5--5--5-|

     (x4)
--------|
------*-|
------*-|
-5-5-5--|


|-----------------------------------------------|---------|
|-*------15-15-15-15-14---14-17---17-14-14-14\*-|-*-----*-|
|-*-------------------------------------------*-|-*-----*-|
|--0-(0)----------------------------------------|--0-(0)--|

4:39                               (x8)
|-------------------------------------|
|-*---------------------------------*-|
|-*---------------------------------*-|
|--1-1-1--0--0--1-2-3--0-0-0-0-0-0-0--|

4:58
|-----------------------------------------------------------|
|--------------------15-15-15-15-14---14-17---17-14-14-14\--|
|-----------------------------------------------------------|
|--1--0--3-3--0-(0)-----------------------------------------|

5:03                                                         5:13
|-----------------------------------------------------------|-----------|
|-*------------------15-15-15-15-14---14-17---17-14-14-14\-*|-----------|
|-*--------------------------------------------------------*|-----------|
|-0-0-0-1--0--3-3--0-(0)------------------------------------|--0-0-0-1--|

----------------|
----------------|
----------------|
0--3-3--0----0--|

5:15                                   (x4) 5:23 (x4) 5:33
|-----------------------------------------|---------|------------------|
|-*-------------------------------------*-|-*-----*-|-*--------------*-|
|-*-------------------------------------*-|-*-----*-|-*--------------*-|
|--0h3h5-0h3h5-0h3h5-0h3h5-0h3h5-5-5-5-5--|--0-(0)--|--0-0---0---0--0--|

5:42
|----------------------------------------------------------------------|
|----------------------------------------------------------------------|
|----------------------------------------------------------------------|
|--0-(0)---------------------------------------------------------------|

6:00
|---------------------------------------------------------------|
|---------------------------------------------------------------|
|------9\7-(7)--------------------------------------------------|
|--0------------------------------------------------------------|

6:10                                                         (x3)
|-----------9----9-(9)------------------------------------------|
|-*----7--9---------------------------------------------------*-|
|-*-----------------------------------------------------------*-|
|--0--------------------------------0-(0)-----------------------|

6:37                                                   6:46
|-----------9----9-(9)--------------------------------|-------|
|------7--9-------------------------------------------|-------|
|-----------------------------------------------------|-------|
|--0--------------------------------3-3-3-3-3-3-------|--17\--|

6:47                                   (x8) 7:03    (x12) 7:11
|-----------------------------------------|-------------|----------------|
|-*-------------------------------------*-|-*----------*|----------------|
|-*-------------------------------------*-|-*--7-6-5-6-*|----------------|
|--0h3h5-0h3h5-0h3h5-0h3h5-0h3h5-5-5-5-5--|--0----------|---------12\--3-|

---------------------|
---------------------|
---------------------|
---3---3---3---3--1--|

 7:13                       (x3) 7:19
|------------------------------|--------------------------|
|-*--------------------------*-|--------------------------|
|-*--------------------5-6-7-*-|--------------------------|
|--0--0--5h7--0--5-6-7---------|--0--0--5h7--0--3---3--1--|

7:22
|-----------------------------------------------------|
|-*------------------------------------------------*--|
|-*--------------------5-6-7-----------------------*--|
|--0--0--5h7--0--5-6-7--------0--0--5h7--0--3---3--1--|

7:31
|----------------------------------------------------------------------|
|----------------------------------------------------------------------|
|----------------------5-6-7-------------------------------------------|
|--0--0--5h7--0--5-6-7--------0--0--5h7--0--3---3---3---3---3--1--0-(0)|

END
comments
print report bad tab
I want to post or [tab]
guest
You may want to rate the tab now too:
select rating
Please do not post tabs as comments. Select "correction" instead!