Oops, an error
Loading. Please wait.

The End Of The Line Tab

ver2
ver2

Intro

Whole song

Interactive

More versions @911Tabs.com
46,487 views 49 this week
16 commentsread comments
1 2 3 4 5
excellent!
x 17
Autoscroll
+/-
esc
set tempo
stop
Contributor
Hey! There's an official Ultimate Guitar app which is ideal
for learning songs when you're away from computer. Get the app
WARNING: You are trying to view
                                    content from Ultimate-Guitar.com
                                    in an unauthorized application,
                                    which is prohibited.

                                    Please use an official Ultimate
                                    Guitar Tabs application for iPhone,
                                    iPad or Android to access legitimate
                                    chords, guitar, bass, and drum tabs
                                    from Ultimate-Guitar.com database.

                                    Type "ultimate guitar tabs" in Apple
                                    App Store's or Android Market's
                                    search to find the application.
-------------------------------------------------------------------------------
The End of the Line - Metallica
-------------------------------------------------------------------------------
Tabbed by: Mentality71
Email: npcorkren@yahoo.com

Tuning: Standard

Lead: Kirk Hammett
Rhythm & Vocals: James Hetfield

===============================================================================
  
  =======
  =Intro=
  =======

e||----------------------------------------------------------------======---|
B||----------------------------------------------------------------= x4 =---|
G||----------------------------------------------------------------======---|
D||--3----2---5---5---2-----------------------------------------------------|
A||--3----2---5---5---2-----------------------------------------------------|
E||--1----0---3---3---0----/13-13-13-12~--12-15-15-15-12~--12-10h12---0-0---|
                                                                      PM
e|--------------------------------======---|
B|--------------------------------= x4 =---|
G|--------------------------------======---|
D|---3--3--3--2-/5--5----------------------|
A|---3--3--3--2-/5--5---2--2--2--2--2--2---|
E|---1--1--1--0-/3--3---0--0--0--0--0--0---|
                        PM-------------|

e|---------------------------------------------------------------|
B|---------------------------------------------------------------|
G|---------------------------------------------------------------|
D|---8----7---10---10---7----10---9---12---12---9----2-----------|
A|---8----7---10---10---7----10---9---12---12---9----2-----------|
E|---6----5----8----8---5-----8---7---10---10---7----0-----12\---|

e|------------------======---||---------------|
B|------------------= x3 =---||---------------|
G|------------------======---||---------------|
D|---------------------------||--------5p0----|
A|-------------------5p0-7---||------------7--|
E|---0-0-5h6-0-0-5h6---------||--0-5h6--------|

e|------------------======---|
B|------------------= x3 =---|
G|------------------======---|
D|---------------------------|
A|-------------------5p0-7---|
E|---0-0-5h6-0-0-5h6---------|

e|-------------------------------------------------------------|
B|-------------------------------------------------------------|
G|-------------------------------------------------------------| (Lead)
D|--------------------------------------/8---------/8-----/9---|
A|--------------------------------------/8---------/8-----/9---|
E|---0-0-5h6-0--0-0-0-0-0-0-0-0-0-0-0-0-/6-0-0-0-0-/6-0-0-/7---|
 ||             PM--------------------|    PM----|    PM
 ||
e|-------------------------------------------------------------|
B|-------------------------------------------------------------|
G|-------------------------------------------------------------| (Rhythm)
D|------------------------------2-------/8---------/8-----/9---|
A|------------------------------2-------/8---------/8-----/9---|
E|------------------------------0-------/6---------/6-----/7---|

e|----------------------------------|
B|----------------------------------|
G|----------------------------------| |
D|-----------/8---------/8-----/9---|
A|-----------/8---------/8-----/9---|
E|---0-0-0-0-/6-0-0-0-0-/6-0-0-/7---|
 ||
 ||
e|----------------------------------|
B|----------------------------------|
G|----------------------------------| ||
D|-----------/8---------------------|
A|-----------/8---------------------|
E|-----------/6---------------------|

e|--------------------------------======---|
B|--------------------------------= x3 =---|
G|--------------------------------======---| |
D|-----------/8---------/8-----/9----------|
A|-----------/8---------/8-----/9----------|
E|---0-0-0-0-/6-0-0-0-0-/6-0-0-/7----------|
 ||  PM----|    PM----|    PM
 ||
e|--------------------------------======---|
B|--------------------------------= x3 =---|
G|--------------------------------======---| ||
D|-----------/8---------/8-----/9----------|
A|-----------/8---------/8-----/9----------|
E|---0-0-0-0-/6-0-0-0-0-/6-0-0-/7----------|
     PM----|    PM----|    PM

e|-------------------------------------|
B|-------------------------------------|
G|-------------------------------------|
D|-----------3-------5-------8---------|
A|-----------3-------5-------8---------|
E|---0-0-0-0-1-0-0-0-3-0-0-0-6-0-0-0---|
     PM----|   PM--|   PM--|   PM--|

  =========
  =Verse 1=
  =========

     Need...       more and more  tainted  misery
e|---------------------------------------------------------------|
B|---------------------------------------------------------------|
G|---------------------------------------------------------------|
D|---------------------------------------------------------------|
A|---2--------7-7-7-5h7-7-------3-2--------7-7-7-5h7-7-------3---|
E|---0--0-0-0-------------0-0-0-1-0--0-0-0-------------0-0-0-1---|
        PM--|             PM--|      PM--|             PM--|

     Bleed...      battle scars   chemical  affinity
e|------------------------------------------------------------------|
B|------------------------------------------------------------------|
G|------------------------------------------------------------------|
D|----------------------------------------3-------5-------8---------|
A|---2--------7-7-7-5h7-7-------3-2-------3-------5-------8---------|
E|---0--0-0-0-------------0-0-0-1-0-0-0-0-1-0-0-0-3-0-0-0-6-0-0-0---|
        PM--|             PM--|     PM--|   PM--|   PM--|   PM--|

     Reign...      legacy         innocence corrode
e|---------------------------------------------------------------|
B|---------------------------------------------------------------|
G|---------------------------------------------------------------|
D|---------------------------------------------------------------|
A|---2--------7-7-7-5h7-7-------3-2--------7-7-7-5h7-7-------3---|
E|---0--0-0-0-------------0-0-0-1-0--0-0-0-------------0-0-0-1---|
        PM--|             PM--|      PM--|             PM--|

     Stain...      rot away       catatonic     overload
e|------------------------------------------------------------------|
B|------------------------------------------------------------------|
G|------------------------------------------------------------------|
D|------------5-5-5-4h5-5-----------------3-------5-------8---------|
A|---2--------------------------3-2-------3-------5-------8---------|
E|---0--0-0-0-------------0-0-0-1-0-0-0-0-1-0-0-0-3-0-0-0-6-0-0-0---|
        PM--|             PM--|     PM--|   PM--|   PM--|   PM--|


e|----------------------------------|
B|----------------------------------|
G|----------------------------------| |
D|-----------/8---------/8-----/9---|
A|-----------/8---------/8-----/9---|
E|---0-0-0-0-/6-0-0-0-0-/6-0-0-/7---|
 ||  PM----|    PM----|    PM
 ||
e|----------------------------------|
B|----------------------------------|
G|----------------------------------| ||      
D|-----------/8---------/8-----/9---|
A|-----------/8---------/8-----/9---|
E|---0-0-0-0-/6-0-0-0-0-/6-0-0-/7---|
     PM----|    PM----|    PM

e|------------------======---|
B|------------------= x3 =---|
G|------------------======---|
D|---------------------------|
A|-------------------5p0-7---|
E|---0-0-5h6-0-0-5h6---------|

e|-------------------------------------------------------------|
B|-------------------------------------------------------------|
G|-------------------------------------------------------------| |     
D|--------------------------------------/8---------/8-----/9---|
A|--------------------------------------/8---------/8-----/9---|
E|---0-0-5h6-0--0-0-0-0-0-0-0-0-0-0-0-0-/6-0-0-0-0-/6-0-0-/7---|
 ||             PM--------------------|    PM----|    PM
 ||
e|-------------------------------------------------------------|
B|-------------------------------------------------------------|
G|-------------------------------------------------------------| ||      
D|------------------------------2-------/8---------/8-----/9---|
A|------------------------------2-------/8---------/8-----/9---|
E|------------------------------0-------/6---------/6-----/7---|

e|--------------------------------======---|
B|--------------------------------= x2 =---|
G|--------------------------------======---|
D|-----------/8---------/8-----/9----------|
A|-----------/8---------/8-----/9----------|
E|---0-0-0-0-/6-0-0-0-0-/6-0-0-/7----------|
     PM----|    PM----|    PM

e|-------------------------------------|
B|-------------------------------------|
G|-------------------------------------|
D|-----------3-------5-------8---------|
A|-----------3-------5-------8---------|
E|---0-0-0-0-1-0-0-0-3-0-0-0-6-0-0-0---|
     PM----|   PM--|   PM--|   PM--|

  =========
  =Verse 2=
  =========

     Choke...    asphyxia         snuff reality
e|---------------------------------------------------------------|
B|---------------------------------------------------------------|
G|---------------------------------------------------------------|
D|---------------------------------------------------------------|
A|---2--------7-7-7-5h7-7-------3-2--------7-7-7-5h7-7-------3---|
E|---0--0-0-0-------------0-0-0-1-0--0-0-0-------------0-0-0-1---|
        PM--|             PM--|      PM--|             PM--|

     Scorch...     kill the light. incinerate celebrity
e|------------------------------------------------------------------|
B|------------------------------------------------------------------|
G|------------------------------------------------------------------|
D|----------------------------------------3-------5-------8---------|
A|---2--------7-7-7-5h7-7-------3-2-------3-------5-------8---------|
E|---0--0-0-0-------------0-0-0-1-0-0-0-0-1-0-0-0-3-0-0-0-6-0-0-0---|
        PM--|             PM--|     PM--|   PM--|   PM--|   PM--|

     Reaper...      butchery      karma amputee    
e|---------------------------------------------------------------|
B|---------------------------------------------------------------|
G|---------------------------------------------------------------|
D|---------------------------------------------------------------|
A|---2--------7-7-7-5h7-7-------3-2--------7-7-7-5h7-7-------3---|
E|---0--0-0-0-------------0-0-0-1-0--0-0-0-------------0-0-0-1---|
        PM--|             PM--|      PM--|             PM--|

     Bloodline...   redefine      death contagious deity
e|------------------------------------------------------------------|
B|------------------------------------------------------------------|
G|------------------------------------------------------------------|
D|------------5-5-5-4h5-5-----------------3-------5-------8---------|
A|---2--------------------------3-2-------3-------5-------8---------|
E|---0--0-0-0-------------0-0-0-1-0-0-0-0-1-0-0-0-3-0-0-0-6-0-0-0---|
        PM--|             PM--|     PM--|   PM--|   PM--|   PM--|


e|----------------------------------|
B|----------------------------------|
G|----------------------------------| |
D|-----------/8---------/8-----/9---|
A|-----------/8---------/8-----/9---|
E|---0-0-0-0-/6-0-0-0-0-/6-0-0-/7---|
 ||  PM----|    PM----|    PM
 ||
e|----------------------------------|
B|----------------------------------|
G|----------------------------------| ||      
D|-----------/8---------/8-----/9---|
A|-----------/8---------/8-----/9---|
E|---0-0-0-0-/6-0-0-0-0-/6-0-0-/7---|
     PM----|    PM----|    PM

e|--------------------------======---|
B|--------------------------= x2 =---|
G|--------------------------======---|
D|-----------------------------------|
A|-----------------------------------|
E|---0-5h6-0-5h6-0-5h6-0-5h6-0-5-6---|

  ========
  =Chorus=
  ========

    Hooked  into  this  deceiever...             need  more  and  more
e|----------------------------------------------------------------------------------------|
B|----------------------------------------------------------------------------------------|
G|----------------------------------------------------------------------------------------|
D|----------------------------------------------------------------------------------------|
A|----------------------------------------------------------------------------------------|
E|--0-0-15-0-15-15-0-15-0-0-15-0-15-15-15-15---0-0-15-0-15-15-0-15-0-0-15-0-15-15-15-15---|

     Into  the  endless  fever                  need  more  and  more
e|----------------------------------------------------------------------------------------|
B|----------------------------------------------------------------------------------------|
G|----------------------------------------------------------------------------------------|
D|----------------------------------------------------------------------------------------|
A|----------------------------------------------------------------------------------------|
E|--0-0-18-0-18-18-0-18-0-0-18-0-18-18-18-18---0-0-21-0-21-21-0-21-0-0-21-0-21-21-21-21---|

     New  consequence  machine                  you  burn  thru  all your gasoline
e|----------------------------------------------------------------------------------------|
B|----------------------------------------------------------------------------------------|
G|----------------------------------------------------------------------------------------|
D|----------------------------------------------------------------------------------------|
A|----------------------------------------------------------------------------------------|
E|--0-0-15-0-15-15-0-15-0-0-15-0-15-15-15-15---0-0-15-0-15-15-0-15-0-0-15-0-15-15-15-15---|

     Asylum  overtime                       nevermind       you've reached the end of the line
e|----------------------------------------------------------------------------------------|
B|----------------------------------------------------------------------------------------|
G|-----------------------------------------------------------------3---3---3---3---3------|
D|-----------------------------------------------------------------3---3---3---3---3---3--|
A|-----------------------------------------------------------------1---1---1---1---1---3--|
E|--0-0-15-0-15-15-0-15-0-0-15-0-15-15-15-15---0-0-15-0-15-15-15\----------------------1--|

e|------------------======---||---------------|
B|------------------= x3 =---||---------------|
G|------------------======---||---------------|
D|---------------------------||--------5p0----|
A|-------------------5p0-7---||------------7--|
E|---0-0-5h6-0-0-5h6---------||--0-5h6--------|

e|------------------======---|
B|------------------= x3 =---|
G|------------------======---|
D|---------------------------|
A|-------------------5p0-7---|
E|---0-0-5h6-0-0-5h6---------|

e|-------------------------------------------------------------|
B|-------------------------------------------------------------|
G|-------------------------------------------------------------| |     
D|--------------------------------------/8---------/8-----/9---|
A|--------------------------------------/8---------/8-----/9---|
E|---0-0-5h6-0--0-0-0-0-0-0-0-0-0-0-0-0-/6-0-0-0-0-/6-0-0-/7---|
 ||             PM--------------------|    PM----|    PM
 ||
e|-------------------------------------------------------------|
B|-------------------------------------------------------------|
G|-------------------------------------------------------------| ||      
D|------------------------------2-------/8---------/8-----/9---|
A|------------------------------2-------/8---------/8-----/9---|
E|------------------------------0-------/6---------/6-----/7---|

e|----------------------------------|
B|----------------------------------|
G|----------------------------------| |
D|-----------/8---------/8-----/9---|
A|-----------/8---------/8-----/9---|
E|---0-0-0-0-/6-0-0-0-0-/6-0-0-/7---|
 ||
 ||
e|----------------------------------|
B|----------------------------------|
G|----------------------------------| ||
D|-----------/8---------------------|
A|-----------/8---------------------|
E|-----------/6---------------------|

e|--------------------------------======---|
B|--------------------------------= x3 =---|
G|--------------------------------======---| |
D|-----------/8---------/8-----/9----------|
A|-----------/8---------/8-----/9----------|
E|---0-0-0-0-/6-0-0-0-0-/6-0-0-/7----------|
 ||  PM----|    PM----|    PM
 ||
e|--------------------------------======---|
B|--------------------------------= x3 =---|
G|--------------------------------======---| ||
D|-----------/8---------/8-----/9----------|
A|-----------/8---------/8-----/9----------|
E|---0-0-0-0-/6-0-0-0-0-/6-0-0-/7----------|
     PM----|    PM----|    PM

e|-------------------------------------|
B|-------------------------------------|
G|-------------------------------------|
D|-----------3-------5-------8---------|
A|-----------3-------5-------8---------|
E|---0-0-0-0-1-0-0-0-3-0-0-0-6-0-0-0---|
     PM----|   PM--|   PM--|   PM--|

  =========
  =Verse 3=
  =========

     Time...     choke the clock  steal another day
e|---------------------------------------------------------------|
B|---------------------------------------------------------------|
G|---------------------------------------------------------------|
D|---------------------------------------------------------------|
A|---2--------7-7-7-5h7-7-------3-2--------7-7-7-5h7-7-------3---|
E|---0--0-0-0-------------0-0-0-1-0--0-0-0-------------0-0-0-1---|
        PM--|             PM--|      PM--|             PM--|

     Die...        Faithfully     narcisistic fade away
e|------------------------------------------------------------------|
B|------------------------------------------------------------------|
G|------------------------------------------------------------------|
D|----------------------------------------3-------5-------8---------|
A|---2--------7-7-7-5h7-7-------3-2-------3-------5-------8---------|
E|---0--0-0-0-------------0-0-0-1-0-0-0-0-1-0-0-0-3-0-0-0-6-0-0-0---|
        PM--|             PM--|     PM--|   PM--|   PM--|   PM--|

     Twisted...     jump the rail, shatter the ground below
e|---------------------------------------------------------------|
B|---------------------------------------------------------------|
G|---------------------------------------------------------------|
D|---------------------------------------------------------------|
A|---2--------7-7-7-5h7-7-------3-2--------7-7-7-5h7-7-------3---|
E|---0--0-0-0-------------0-0-0-1-0--0-0-0-------------0-0-0-1---|
        PM--|             PM--|      PM--|             PM--|

     Breaker...     chase the ghost, the latest high 2 all time low
e|------------------------------------------------------------------|
B|------------------------------------------------------------------|
G|------------------------------------------------------------------|
D|------------5-5-5-4h5-5-----------------3-------5-------8---------|
A|---2--------------------------3-2-------3-------5-------8---------|
E|---0--0-0-0-------------0-0-0-1-0-0-0-0-1-0-0-0-3-0-0-0-6-0-0-0---|
        PM--|             PM--|     PM--|   PM--|   PM--|   PM--|

e|----------------------------------|
B|----------------------------------|
G|----------------------------------| |
D|-----------/8---------/8-----/9---|
A|-----------/8---------/8-----/9---|
E|---0-0-0-0-/6-0-0-0-0-/6-0-0-/7---|
 ||  PM----|    PM----|    PM
 ||
e|----------------------------------|
B|----------------------------------|
G|----------------------------------| ||      
D|-----------/8---------/8-----/9---|
A|-----------/8---------/8-----/9---|
E|---0-0-0-0-/6-0-0-0-0-/6-0-0-/7---|
     PM----|    PM----|    PM

e|--------------------------======---|
B|--------------------------= x2 =---|
G|--------------------------======---|
D|-----------------------------------|
A|-----------------------------------|
E|---0-5h6-0-5h6-0-5h6-0-5h6-0-5-6---|

  ========
  =Chorus=
  ========

    Hooked  into  this  deceiever...             need  more  and  more
e|----------------------------------------------------------------------------------------|
B|----------------------------------------------------------------------------------------|
G|----------------------------------------------------------------------------------------|
D|----------------------------------------------------------------------------------------|
A|----------------------------------------------------------------------------------------|
E|--0-0-15-0-15-15-0-15-0-0-15-0-15-15-15-15---0-0-15-0-15-15-0-15-0-0-15-0-15-15-15-15---|

     Into  the  endless  fever                  need  more  and  more
e|----------------------------------------------------------------------------------------|
B|----------------------------------------------------------------------------------------|
G|----------------------------------------------------------------------------------------|
D|----------------------------------------------------------------------------------------|
A|----------------------------------------------------------------------------------------|
E|--0-0-18-0-18-18-0-18-0-0-18-0-18-18-18-18---0-0-21-0-21-21-0-21-0-0-21-0-21-21-21-21---|

     New  consequence  machine                  you  burn  thru  all your gasoline
e|----------------------------------------------------------------------------------------|
B|----------------------------------------------------------------------------------------|
G|----------------------------------------------------------------------------------------|
D|----------------------------------------------------------------------------------------|
A|----------------------------------------------------------------------------------------|
E|--0-0-15-0-15-15-0-15-0-0-15-0-15-15-15-15---0-0-15-0-15-15-0-15-0-0-15-0-15-15-15-15---|

     Asylum  overtime                       nevermind       you've reached the end of the line
e|----------------------------------------------------------------------------------------|
B|----------------------------------------------------------------------------------------|
G|-----------------------------------------------------------------3---3---3---3---3------|
D|-----------------------------------------------------------------3---3---3---3---3---3--|
A|-----------------------------------------------------------------1---1---1---1---1---3--|
E|--0-0-15-0-15-15-0-15-0-0-15-0-15-15-15-15---0-0-15-0-15-15-15\----------------------1--|

e|--------------------======---|
B|--------------------= x4 =---|
G|--------------------======---|
D|-----------------------------|
A|---2---2---2-----------------|
E|---0---0---0---0---3^5-3^5---|

e|--------------------------------------------======---|
B|--------------------------------------------= x4 =---|
G|--------------------------------------------======---|
D|---------------------------5h7-7-7p5p0-7-------------|
A|---5h7-7-7p5p0---------------------------------------|
E|---------------5h7-7-7p5p0---------------0-----------|
                                           PM

e|-----------------------------------------------======---|
B|-----------------------------------------------= x4 =---|
G|----------------------------------------0------======---|
D|---5h7-7-7p5p0-------------9h10-10-10p9---10~-----------|
A|---------------5h7-7-7p5p0------------------------------|
E|--------------------------------------------------------|

e|-----------------------------------------------======---|
B|-----------------------------------------------= x2 =---|
G|----------------------------------------0------======---|
D|---5h7-7-7p5p0-------------9h10-10-10p9---10------------|
A|---------------5h7-7-7p5p0------------------------------|
E|---------------------------------------------0----------|
                                               PM

e|--------------------------------------------======---|
B|--------------------------------------------= x2 =---|
G|--------------------------------------------======---|
D|---------------------------5h7-7-7p5p0-7-------------|
A|---5h7-7-7p5p0---------------------------------------|
E|---------------5h7-7-7p5p0---------------0-----------|
                                           PM

e|--------------------------------------======---|
B|--------------------------------------= x2 =---|
G|--------------------------------------======---|
D|-----------------------------------------------|
A|-----------------------------------------------|
E|---0-12-12-12-10~--10-13-13-13-12~--12-10h12---|

e|--------------------------------------======---|
B|--------------------------------------= x2 =---|
G|--------------------------------------======---|
D|-----------------------------------------------|
A|-----------------------------------------------|
E|---0-13-13-13-12~--12-15-15-15-12~--12-10h12---|

e|---------------------------------------|
B|---------------------------------------|
G|---------------------------------------|
D|---10-10-10-9~--9-12-12-12-9~--9-7h9---|
A|---------------------------------------|
E|---------------------------------------|

  ======
  =Solo=
  ======

e|----------------------------------------------=---=---=-----|
B|---=-------------=-=-=-=-=-=-=-=-=--=-=-=-=-=-6-=-6-=-7-=---|
G|---2-4-2-0-0-3-0-4-0-5-0-6-0-7-0-7--0-8-0-9-0-=-0-=-0-=-0---|
D|---=-------------=-=-=-=-=-=-=-=-=--=-=-=-=-=---=---=---=---|
A|------------------------------------------------------------|
E|------------------------------------------------------------|

e|---=---=---==---==---==-----14---|
B|---8-=-9-=-10-=-11-=-12--15------|
G|---=-0-=-0-==-0-==-0-==----------|
D|-----=---=----=----=-------------|
A|---------------------------------|
E|---------------------------------|

e|---------15-17-17-15-14----14-19-15-17-15-14----14-19-15-17-15-14----14-19-15-17-15-|
B|---17-15----------------17-------------------17-------------------17----------------|
G|------------------------------------------------------------------------------------|
D|------------------------------------------------------------------------------------|
A|------------------------------------------------------------------------------------|
E|------------------------------------------------------------------------------------|

e|---19-17-15----17-15-------15-----------------------|
B|------------19-------19-17----17-16-15-17-17-15-15--|
G|----------------------------------------------------|
D|----------------------------------------------------|
A|----------------------------------------------------|
E|----------------------------------------------------|

e|---18-16-14----16-14-----15-12----12---------16--|
B|------------17-------0-0-------14----14-12-0-----|
G|-------------------------------------------------|
D|-------------------------------------------------|
A|-------------------------------------------------|
E|-------------------------------------------------|

e|---14-12-15-12----14-12p11\9-12-9----9------13-10\7-10-7-9-6-8-6-5----------|
B|---------------15-----------------11--11-12------------------------8-7-5----|
G|-------------------------------------------------------------------------6--|
D|----------------------------------------------------------------------------|
A|----------------------------------------------------------------------------|
E|----------------------------------------------------------------------------|

e|------------------------------2-0-0-3-2-3-4-5-4-4---|
B|---5-------6p4-7p5---5h7----------------------------|
G|-----7---0---------0-----0-0------------------------|
D|-------7--------------------------------------------|
A|----------------------------------------------------|
E|----------------------------------------------------|

                                                     ==    ==   ==
e|---5-4-6-7-7-6-8-7-7-7-9-8-10-10-11-11-12-11-13-12-12/---22---22\---------|
B|---------------------------------------------------==----==---==----------|
G|--------------------------------------------------------------------------|
D|--------------------------------------------------------------------------|
A|--------------------------------------------------------------------------|
E|--------------------------------------------------------------------------|
 ||
 ||
e|--------------------------------------------------------------------------|
B|--------------------------------------------------------------------------|
G|--------------------------------------------------------------------------|
D|-----------3--2--5--5--2--------------------------------------------------|
A|-----------3--2--5--5--2--------------------------------------------------|
E|---0---0---1--0--3--3--0---/13-13-13-12~--12-15-15-15-12~--12-10h12-------|
     PM--|

e|-----------------------------------------------------------------======---|
B|-----------------------------------------------------------------= x2 =---|
G|-----------------------------------------------------------------======---|
D|-----------3--2--5--5--2--------------------------------------------------|
A|-----------3--2--5--5--2--------------------------------------------------|
E|---0---0---1--0--3--3--0---/13-13-13-12~--12-15-15-15-12~--12-10h12-------|
     PM--|

e|-------------------------|
B|-------------------------|
G|-------------------------|
D|---------3--2--5--5--2---|
A|---------3--2--5--5--2---|
E|---0--0--1--0--3--3--0---|
     PM-|

e|----------------------------------------------------------------------------------------|
B|----------------------------------------------------------------------------------------|
G|----------------------------------------------------------------------------------------|
D|----------------------------------------------------------------------------------------|
A|----------------------------------------------------------------------------------------|
E|--0-0-15-0-15-15-0-15-0-0-15-0-15-15-15-15---0-0-15-0-15-15-0-15-0-0-15-0-15-15-15-15---|

e|----------------------------------------------------------------------------------------|
B|----------------------------------------------------------------------------------------|
G|----------------------------------------------------------------------------------------|
D|----------------------------------------------------------------------------------------|
A|----------------------------------------------------------------------------------------|
E|--0-0-18-0-18-18-0-18-0-0-18-0-18-18-18-18---0-0-21-0-21-21-0-21-0-0-21-0-21-21-21-21---|

e|------------------------------------======---|
B|------------------------------------= x3 =---|
G|------------------------------------======---|
D|---------------------------------------------|
A|---------------------------------------------|
E|--0-0-18-0-18-18-0-18-0-0-18-0-18-18-18-18---|
    PM-------------------------------------|

e|---------------------------------------------|
B|---------------------------------------------|
G|---------------------------------------------|
D|---------------------------------------------|
A|---------------------------------------------|
E|--0-0-19-0-19-19-0-19-0-0-19-0-19-19-19-19---|
    PM-------------------------------------|

e|------------------------------------======---|
B|------------------------------------= x2 =---|
G|------------------------------------======---|
D|---------------------------------------------|
A|---------------------------------------------|
E|--0-0-21-0-21-21-0-21-0-0-21-0-21-21-21-21---|
    PM-------------------------------------|

e|-------------------------------|
B|-------------------------------|
G|-------------------------------| (Both) 
D|---2-2---2---2---2---2---------|
A|---2-2---2---2---2---2---------|
E|---0-0---0---0---0---0---------|

e|---3----3----3----3----|
B|---5----3----2----2----|
G|---4----4----4----4----|
D|-----------------------|
A|-----------------------|
E|-----------------------|

e|--------------------------------------------------------------|
B|--------------------------------------------------------------|
G|-------0--------0-----0-------------0--------0-----0----------| |
D|-----5---5----5-----5---5----5----5---5----5-----5---5----5---|
A|---7--------7-----5--------5----4--------4-----3--------5-----|
E|--------------------------------------------------------------|
 ||
e|---3--------------3-------------3--------------3--------------|
B|---5--------------3-------------2--------------2--------------|
G|---4--------------4-------------4--------------4--------------| ||
D|--------------------------------------------------------------|
A|--------------------------------------------------------------|
E|--------------------------------------------------------------|

  ========
  =Bridge=
  ========

  Drop the hourglass of time, spilling sand we will not find 
e|-------------------------------------------------------------------|
B|-------------------------------------------------------------------|
G|--\9-----/12-----/14-----/16-----\9-----/12-----\6-----/12---------| |
D|-------------------------------------------------------------------|
A|--\7-----/10-----/12-----/14-----\7-----/10-----\4-----/10---------|
E|-------------------------------------------------------------------|
 ||
e|---3-------3-------3-------3------3-------3------3-------3---------|
B|---5-------3-------2-------2------5-------3------2-------2---------|
G|---4-------4-------4-------4------4-------4------4-------4---------| ||
D|-------------------------------------------------------------------|
A|-------------------------------------------------------------------|
E|-------------------------------------------------------------------|

  As we gather here today, we bid farewell, the slave becomes the master-
e|-------------------------------------------------------------------|
B|-------------------------------------------------------------------|
G|--\9-----/12-----/14-----/16-----\9-----/12-----\6-----/12---------| |
D|-------------------------------------------------------------------|
A|--\7-----/10-----/12-----/14-----\7-----/10-----\4-----/10---------|
E|-------------------------------------------------------------------|
 ||
e|---3-------3-------3-------3------3-------3------3-------3---------|
B|---5-------3-------2-------2------5-------3------2-------2---------|
G|---4-------4-------4-------4------4-------4------4-------4---------| ||
D|-------------------------------------------------------------------|
A|-------------------------------------------------------------------|
E|-------------------------------------------------------------------|

                                      The slave becomes the master-
e|-------------------------------------------------------------------|
B|-------------------------------------------------------------------|
G|---9~---------------------\5-/12-\9~--------------------\5-/12-----| |
D|-------------------------------------------------------------------|
A|---7~---------------------\3-/10-\7~--------------------\3-/10-----|
E|-------------------------------------------------------------------|
 ||
e|---3-------3-------3-------3------3-------3------3-------3---------|
B|---5-------3-------2-------2------5-------3------2-------2---------|
G|---4-------4-------4-------4------4-------4------4-------4---------| ||
D|-------------------------------------------------------------------|
A|-------------------------------------------------------------------|
E|-------------------------------------------------------------------|

                               The slave becomes the master  Yeah!
e|------------------------------------------------------------------------|
B|------------------------------------------------------------------------|
G|---9/12\9~-----------------5-/12--9-9-9-9-9-9-9-9-9-9-9-9-12-12-12-12---| |
D|----------------------------------x-x-x-x-x-x-x-x-x-x-x-x--x--x--x--x---|
A|---7/10\7~-----------------3-/10--7-7-7-7-7-7-7-7-7-7-7-7-10-10-10-10---|
E|------------------------------------------------------------------------|
 ||
e|---3-------3-------3-------3------3-------3-------3-------3-------------|
B|---5-------3-------2-------2------5-------3-------2-------2-------------|
G|---4-------4-------4-------4------4-------4-------4-------4-------------| ||
D|------------------------------------------------------------------------|
A|------------------------------------------------------------------------|
E|------------------------------------------------------------------------|

  The slave becomes the master...              need  more  and  more
e|----------------------------------------------------------------------------------------|
B|----------------------------------------------------------------------------------------|
G|----------------------------------------------------------------------------------------|
D|----------------------------------------------------------------------------------------|
A|----------------------------------------------------------------------------------------|
E|--0-0-15-0-15-15-0-15-0-0-15-0-15-15-15-15---0-0-15-0-15-15-0-15-0-0-15-0-15-15-15-15---|

     Right now or never after                  need  more  and  more
e|----------------------------------------------------------------------------------------|
B|----------------------------------------------------------------------------------------|
G|----------------------------------------------------------------------------------------|
D|----------------------------------------------------------------------------------------|
A|----------------------------------------------------------------------------------------|
E|--0-0-18-0-18-18-0-18-0-0-18-0-18-18-18-18---0-0-21-0-21-21-0-21-0-0-21-0-21-21-21-21---|

     New  consequence  machine                  you  burn  thru  all your gasoline
e|----------------------------------------------------------------------------------------|
B|----------------------------------------------------------------------------------------|
G|----------------------------------------------------------------------------------------|
D|----------------------------------------------------------------------------------------|
A|----------------------------------------------------------------------------------------|
E|--0-0-15-0-15-15-0-15-0-0-15-0-15-15-15-15---0-0-15-0-15-15-0-15-0-0-15-0-15-15-15-15---|

     Asylum  overtime                        nevermind
e|------------------------------------------------------------------|
B|------------------------------------------------------------------|
G|------------------------------------------------------------------|
D|------------------------------------------------------------------|
A|------------------------------------------------------------------|
E|--0-0-15-0-15-15-0-15-0-0-15-0-15-15-15-15-0-0-15-0-15-15-15-12---|

        Dead   hourglass   of   time
e|-----------------------------------------------------|
B|-----------------------------------------------------|
G|-----------------------------------------------------|
D|-----------------------------------------------------|
A|-----------------------------------------------------|
E|---10h12-12-12-12-12-12-12-10h12-12-12-12-12-12-12---|

            Sand   we   will   not   ever   find
e|-----------------------------------------------------|
B|-----------------------------------------------------|
G|-----------------------------------------------------|
D|-----------------------------------------------------|
A|-----------------------------------------------------|
E|---10h12-12-12-12-12-12-12-10h12-12-12-12-12-12-12---|

            We   gather   here   today
e|-----------------------------------------------------|
B|-----------------------------------------------------|
G|-----------------------------------------------------|
D|-----------------------------------------------------|
A|-----------------------------------------------------|
E|---10h12-12-12-12-12-12-12-10h12-12-12-12-12-12-12---|

    Say  good-bye  'cuz      you've reached the end of the line-
e|-----------------------------------------------------------|
B|-----------------------------------------------------------|
G|--------------------------------3----3----3----3---3-------|
D|--------------------------------3----3----3----3---3---3---|
A|--------------------------------1----1----1----1---1---3---|
E|---10h12-12-12-12-12-12-12-----------------------------1---|

e|------------------======---|
B|------------------= x3 =---|
G|------------------======---|
D|---------------------------|
A|-------------------5p0-7---|
E|---0-0-5h6-0-0-5h6---------|

                The end of the line-
e|-------------------------------|
B|-------------------------------|
G|-------------------3---3-------|
D|-------------------3---3---3---|
A|-------------------1---1---3---|
E|---0--0-5h6--0-------------1---|

e|---------------------------|
B|---------------------------|
G|---------------------------|
D|---------------------------|
A|-------------------5p0-7---|
E|---0-0-5h6-0-0-5h6---------|

                The end of the line-
e|-------------------------------|
B|-------------------------------|
G|-------------------3---3-------|
D|-------------------3---3---3---|
A|-------------------1---1---3---|
E|---0--0-5h6--0-------------1---|

e|---------------------------|
B|---------------------------|
G|---------------------------|
D|---------------------------|
A|-------------------5p0-7---|
E|---0-0-5h6-0-0-5h6---------|

                The end of the line-
e|-------------------------------|
B|-------------------------------|
G|-------------------3---3-------|
D|-------------------3---3---3---|
A|-------------------1---1---3---|
E|---0--0-5h6--0-------------1---|

e|---------------------------|
B|---------------------------|
G|---------------------------|
D|---------------------------|
A|-------------------5p0-7---|
E|---0-0-5h6-0-0-5h6---------|

                You've reached the end of the line-
e|-------------------------------------------|
B|-------------------------------------------|
G|-------------------3---3---3---3---3-------|
D|-------------------3---3---3---3---3---3---|
A|-------------------1---1---1---1---1---3---|
E|---0--0-5h6--0-------------------------1---|

e|--------------------------------------||
B|--------------------------------------||
G|--------------------------------------|| |
D|---4b---------------------------------||
A|--------------------------------------||
E|--------------------------------x\----||
 || grad. bend                          ||
 ||                                     ||
e|--------------------------------------||
B|--------------------------------------|| ||
G|--------------------------------------||
D|---2----------------------------------||
A|---2----------------------------------||
E|---0----------------------------x\----||

===============================================================================
| /  slide up
| \  slide down
| h  hammer-on
| p  pull-off
| ~  vibrato
| +  harmonic
| x  mute note
| ^  grace note
| =  tremolo picking
===============================================================================
comments
print report bad tab
16 comments total. Showing first comments. show 1 bad comment
+6 reply
metalfreak_6666 wrote on February 27 2009, 06:24 pm

awesome tab dude finally a tab with the whole song

+5 reply
xzxw wrote on February 27 2009, 09:07 pm

Yes! I've been hoping the author of version 1 would finish but dude this is wayyyy better

I want to post or [tab]
guest
You may want to rate the tab now too:
select rating
Please do not post tabs as comments. Select "correction" instead!