Oops, an error
Loading. Please wait.

The Four Horsemen Tab

ver6
14,472 views 54 this week
6 commentsread comments
1 2 3 4 5
excellent!
x 11
Autoscroll
+/-
esc
set tempo
stop
Contributor
Hey! There's an official Ultimate Guitar app which is ideal
for learning songs when you're away from computer. Get the app
WARNING: You are trying to view
                                    content from Ultimate-Guitar.com
                                    in an unauthorized application,
                                    which is prohibited.

                                    Please use an official Ultimate
                                    Guitar Tabs application for iPhone,
                                    iPad or Android to access legitimate
                                    chords, guitar, bass, and drum tabs
                                    from Ultimate-Guitar.com database.

                                    Type "ultimate guitar tabs" in Apple
                                    App Store's or Android Market's
                                    search to find the application.
-----------------------------------------------------------------
                  Metallica – The Four Horsemen
                       Kill 'em All, 1983
-----------------------------------------------------------------


Intro: [ 2x: 1st time 1 guitar, 2nd time 2 guitars ]

     C   G5    D5   C5
E|---------------------|-----------------------------------------|
B|---5-----------------|-----------------------------------------|
G|---5---------7----5--|-----------------------------------------|
D|---5----5----7----5--|-----------------------------------------|
A|---3----5----5----3--|--7---5---7---5---7---5---7---5---7---5--|
E|--------3------------|--0-------0-------0-------0-------0------|

---------------------------|-----------------------------------|
---------------------------|-----------------------------------|
---------------------------|-----------------------------------|
---------------------------|-----------------------------------|
----7---5---7---5---5---5--|--7---5---7---5---7---5---7---5----|
----0-------0-------7------|--0-------0-------0-------0--------|

           E5          E5
|-----------------------------|---------------------------------|
|-----------------------------|---------------------------------|
|-----------------------------|---------------------------------|
|-----------------7P5---------|---------------------------------|
|-------5---7----------7P5----|--7---5---7---5---7---5---5---5--|
|---7-------------------------|--0-------0-------0-------7------|

                                    C   G5    D5   C5
---------------------------------|------------------------|
---------------------------------|------------------------|
---------------------------------|------------------------|
---------------------------------|--5---------7----5------|
--7---5---7---5---7---5---5---5--|--3----5----5----3------|
--0-------0-------0-------7------|-------3----------------|


Verse:

    E5                   D5       E5                  C5 D5
E|-----------------------------|----------------------------|
B|-----------------------------|----------------------------|
G|-----------------------------|----------------------------|
D|------9------9-----9---7--7--|------9-----9-----9---5--7--|
A|------7------7-----7---5--5--|------7-----7-----7---3--5--|
E|--000---000----000-----------|--000----000---000----------|

   E5                  G5  E5     C5   G5   D5   C5
|------------------------------|---------------------|
|------------------------------|---------------------|
|------------------------------|---------------------|
|------7-----7-----7---12--7---|--5---------7----5---|
|------9-----9-----9---10--9---|--3----5----5----3---|
|--000---000---000-------------|-------3-------------|

   E5                   D5       E5                  C5 D5
|-----------------------------|----------------------------|
|-----------------------------|----------------------------|
|-----------------------------|----------------------------|
|------9------9-----9---7--7--|------9-----9-----9---5--7--|
|------7------7-----7---5--5--|------7-----7-----7---3--5--|
|--000---000----000-----------|--000----000---000----------|
   By the last breath of the     Better raise your ears…
     fourth winds blow…

   E5                  G5  E5     C5   G5   D5   C5
|------------------------------|---------------------|
|------------------------------|---------------------|
|------------------------------|---------------------|
|------7-----7-----7---12--7---|--5---------7----5---|
|------9-----9-----9---10--9---|--3----5----5----3---|
|--000---000---000-------------|-------3-------------|
   The sound of hooves knocks
       at your door.

   E5                   D5       E5                  C5 D5
|-----------------------------|----------------------------|
|-----------------------------|----------------------------|
|-----------------------------|----------------------------|
|------9------9-----9---7--7--|------9-----9-----9---5--7--|
|------7------7-----7---5--5--|------7-----7-----7---3--5--|
|--000---000----000-----------|--000----000---000----------|
   Lock up your wife and         Its time to wield the
       children now…                      blade…

   E5                  G5  E5     C5   G5   D5   C5
|------------------------------|---------------------|
|------------------------------|---------------------|
|------------------------------|---------------------|
|------7-----7-----7---12--7---|--5---------7----5---|
|------9-----9-----9---10--9---|--3----5----5----3---|
|--000---000---000-------------|-------3-------------|
   For now you have got some
           Company.


Chorus:
              E5                       E5    D5
E|-----------------------------|------------------------------|
B|-----------------------------|------------------------------|
G|-----------------------------|------------------------------|
D|-------------9---------------|--------9-----7---------------|
A|-------------7---------------|--------7-----5---------------|
E|-----------------------------|------------------------------|
       The horsemen are                On the leather
        drawing nearer…               steeds they ride…

        D5     C5                      C5     B5
|------------------------------|------------------------------|
|------------------------------|------------------------------|
|------------------------------|------------------------------|
|--------7------5--------------|--------5------4--------------|
|--------5------3--------------|--------3------2--------------|
|------------------------------|------------------------------|
                 They have come to take your life.

              E5                     E5      D5
|-----------------------------|------------------------------|
|-----------------------------|------------------------------|
|-----------------------------|------------------------------|
|-------------9---------------|-------9------7---------------|
|-------------7---------------|-------7------5---------------|
|-----------------------------|------------------------------|
       On through the                  With the four
       dead of night…                  horsemen ride…

         D5     C5                  B5   C5    B5   G5
|------------------------------|------------------------------|
|------------------------------|------------------------------|
|------------------------------|------------------------------|
|--------7------5--------------|-----4----5----4--------------|
|--------5------3--------------|-----2----3----2----5---------|
|------------------------------|--------------------3---------|
                                  Or choose your fate and die.


Part:

|-----------------------------------------------------------------|
|-----------------------------------------------------------------|
|-----------------------------------------------------------------|
|-----------------------------------------------------------------|
|--7---5---7---5---7---5---7---5---7---5---7---5---7---5---5---5--|
|--0-------0-------0-------0-------0-------0-------0-------7------|

                                               E5         E5
|-----------------------------------|-----------------------------|
|-----------------------------------|-----------------------------|
|-----------------------------------|-----------------------------|
|-----------------------------------|-----------------7P5---------|
|--7---5---7---5---7---5---7---5----|-------5---7----------7P5----|
|--0-------0-------0-------0--------|---7-------------------------|
                                                    Oh! Yeah, Yeah!

|-----------------------------------------------------------------|
|-----------------------------------------------------------------|
|-----------------------------------------------------------------|
|-----------------------------------------------------------------|
|--7---5---7---5---7---5---5---5---7---5---7---5---7---5---5---5--|
|--0-------0-------0-------7-------0-------0-------0-------7------|

   C5   G5   D5   C5
|-----------------------|
|-----------------------|
|-----------------------|[2x. 2nd time without
|---5---------7----5----| the “Oh! Yeah, Yeah!”]
|---3----5----5----3----|
|--------3--------------|


Verse:

    E5                   D5       E5                  C5 D5
E|-----------------------------|----------------------------|
B|-----------------------------|----------------------------|
G|-----------------------------|----------------------------|
D|------9------9-----9---7--7--|------9-----9-----9---5--7--|
A|------7------7-----7---5--5--|------7-----7-----7---3--5--|
E|--000---000----000-----------|--000----000---000----------|
     You have been dying since              You know it has
      the day You were born          all been planned

   E5                  G5  E5     C5   G5   D5   C5
|------------------------------|---------------------|
|------------------------------|---------------------|
|------------------------------|---------------------|
|------7-----7-----7---12--7---|--5---------7----5---|
|------9-----9-----9---10--9---|--3----5----5----3---|
|--000---000---000-------------|-------3-------------|
    The quartet of deliverance
             Rides
    E5                   D5       E5                  C5 D5
E|-----------------------------|----------------------------|
B|-----------------------------|----------------------------|
G|-----------------------------|----------------------------|
D|------9------9-----9---7--7--|------9-----9-----9---5--7--|
A|------7------7-----7---5--5--|------7-----7-----7---3--5--|
E|--000---000----000-----------|--000----000---000----------|
         A sinner once                No need for
         a sinner twice              confession now

   E5                  G5  E5     C5   G5   D5   C5
|------------------------------|---------------------|
|------------------------------|---------------------|
|------------------------------|---------------------|
|------7-----7-----7---12--7---|--5---------7----5---|
|------9-----9-----9---10--9---|--3----5----5----3---|
|--000---000---000-------------|-------3-------------|
   Cause now you have got
   the fight of your life


Chorus:
              E5                       E5    D5
E|-----------------------------|------------------------------|
B|-----------------------------|------------------------------|
G|-----------------------------|------------------------------|
D|-------------9---------------|--------9-----7---------------|
A|-------------7---------------|--------7-----5---------------|
E|-----------------------------|------------------------------|
       The horsemen are                On the leather
        drawing nearer…               steeds they ride…

        D5     C5                      C5     B5
|------------------------------|------------------------------|
|------------------------------|------------------------------|
|------------------------------|------------------------------|
|--------7------5--------------|--------5------4--------------|
|--------5------3--------------|--------3------2--------------|
|------------------------------|------------------------------|
                 They have come to take your life.

              E5                     E5      D5
|-----------------------------|------------------------------|
|-----------------------------|------------------------------|
|-----------------------------|------------------------------|
|-------------9---------------|-------9------7---------------|
|-------------7---------------|-------7------5---------------|
|-----------------------------|------------------------------|
       On through the                  With the four
       dead of night…                  horsemen ride…

         D5     C5                  B5   C5    B5   G5
|------------------------------|------------------------------|
|------------------------------|------------------------------|
|------------------------------|------------------------------|
|--------7------5--------------|-----4----5----4--------------|
|--------5------3--------------|-----2----3----2----5---------|
|------------------------------|--------------------3---------|
                                  Or choose your fate and die.


Part:

|-----------------------------------------------------------------|
|-----------------------------------------------------------------|
|-----------------------------------------------------------------|
|-----------------------------------------------------------------|
|--7---5---7---5---7---5---7---5---7---5---7---5---7---5---5---5--|
|--0-------0-------0-------0-------0-------0-------0-------7------|

                                               E5         E5
|-----------------------------------|-----------------------------|
|-----------------------------------|-----------------------------|
|-----------------------------------|-----------------------------|
|-----------------------------------|-----------------7P5---------|
|--7---5---7---5---7---5---7---5----|-------5---7----------7P5----|
|--0-------0-------0-------0--------|---7-------------------------|
                                                    Oh! Yeah, Yeah!

|-----------------------------------------------------------------|
|-----------------------------------------------------------------|
|-----------------------------------------------------------------|
|-----------------------------------------------------------------|
|--7---5---7---5---7---5---5---5---7---5---7---5---7---5---5---5--|
|--0-------0-------0-------7-------0-------0-------0-------7------|

   C5   G5   D5   C5
|-----------------------|
|-----------------------|
|-----------------------|[2x. 2nd time without the “Oh! Yeah, Yeah!”
|---5---------7----5----|        and add an E5 at the end]
|---3----5----5----3----|
|--------3--------------|


Brige (1/5):

|---------------------------------|\
|---------------------------------|\ \
|---------------------------------|\  [6x]
|---------------------------------|\ /
|---------------------------------|\
|---0---0-0-0-0---0---0-0-0-0-----|\

                                            F5 E5   E5
|---------------------------------------------------------|
|---------------------------------------------------------|
|---------------------------------------------------------|
|--------------------------------------------10\9---9-----|
|---------------------------------------------8\7---7-----|
|--0---0-0-0-0---0---0-0-0-0---0---0-0-0-0----------------|

Bridge (2/5): [4x]

                                             F5 E5  E5
|---------------------------------------------------------|
|---------------------------------------------------------|
|---------------------------------------------------------|
|--------------------------------------------10\9---9-----|
|---------------------------------------------8\7---7-----|
|--0---0-0-0-0---0---0-0-0-0---0---0-0-0-0----------------|


                                             F5
|---------------------------------------------------------|
|---------------------------------------------------------|
|---------------------------------------------------------|
|--------------------------------------------10-----------|
|--------------------------------------------8------------|
|--0---0-0-0-0---0---0-0-0-0---0---0-0-0-0----------------|

Bridge (3/5):

|--------------------------------------------------|
|--------------------------------------------------|
|--------------------------------------------------|
|--------------------------------------------------|
|---7---5-------5----------------------------------|
|-----------7------7---6---5---3---5---0---3---5---|

                                  C5  C#5  D5
|------------------------------|---------------|
|------------------------------|---------------|
|------------------------------|---------------|
|------------------------------|---5---6---7---|
|---7---5-------5--------------|---3---4---5---|
|-----------7------7---6---5---|---------------|

Bridge (4/5): [8x]
                                             C5  C#5  D5
|---------------------------------------------------------|
|---------------------------------------------------------|
|---------------------------------------------------------|
|---------------------------------------------5---6---7---|
|------------------8---7---5---7--------------3---4---5---|
|---0---0---5---7-----------------0---0---0---------------|

Bridge (5/5):

                                             C5  C#5  D5
|---------------------------------------------------------|
|---------------------------------------------------------|
|---------------------------------------------------------|
|---------------------------------------------5---6---7---|
|---------------------------------------------3---4---6---|
|--0---0---0---0---0---0---0---0---0---0---0--------------|
             Time! Has taken its toll on you

                                             C5  C#5  D5
|---------------------------------------------------------|
|---------------------------------------------------------|
|---------------------------------------------------------|
|---------------------------------------------5---6---7---|
|---------------------------------------------3---4---6---|
|--0---0---0---0---0---0---0---0---0---0---0--------------|
                         The lines that crack your face

                                             C5  C#5  D5
|---------------------------------------------------------|
|---------------------------------------------------------|
|---------------------------------------------------------|
|---------------------------------------------5---6---7---|
|---------------------------------------------3---4---6---|
|--0---0---0---0---0---0---0---0---0---0---0--------------|
          Famine! Your body it has torn through


                                             C5  C#5  D5
|---------------------------------------------------------|
|---------------------------------------------------------|
|---------------------------------------------------------|
|---------------------------------------------5---6---7---|
|---------------------------------------------3---4---6---|
|--0---0---0---0---0---0---0---0---0---0---0--------------|
                                Withered in every place

                                             C5  C#5  D5
|---------------------------------------------------------|
|---------------------------------------------------------|
|---------------------------------------------------------|
|---------------------------------------------5---6---7---|
|---------------------------------------------3---4---6---|
|--0---0---0---0---0---0---0---0---0---0---0--------------|
      Pestilence! For what you have had to endure

                                             C5  C#5  D5
|---------------------------------------------------------|
|---------------------------------------------------------|
|---------------------------------------------------------|
|---------------------------------------------5---6---7---|
|---------------------------------------------3---4---6---|
|--0---0---0---0---0---0---0---0---0---0---0--------------|
        And what you have put others through

                                             C5  C#5  D5
|---------------------------------------------------------|
|---------------------------------------------------------|
|---------------------------------------------------------|
|---------------------------------------------5---6---7---|
|---------------------------------------------3---4---6---|
|--0---0---0---0---0---0---0---0---0---0---0--------------|
        Death! Deliverance for you for sure

                                             C5  C#5  D5
|---------------------------------------------------------|
|---------------------------------------------------------|
|---------------------------------------------------------|
|---------------------------------------------5---6---7---|
|---------------------------------------------3---4---6---|
|--0---0---0---0---0---0---0---0---0---0---0--------------|
              There is nothing you can do

|--------------------------------------------------|
|--------------------------------------------------|
|--------------------------------------------------|
|--------------------------------------------------|
|---7---5-------5----------------------------------|
|-----------7------7---6---5---3---5---0---3---5---|

|--------------------------------------------------|
|--------------------------------------------------|
|--------------------------------------------------|
|--------------------------------------------------|
|---7---5-------5----------------------------------|
|-----------7------7---6---5---3---5---0---3---5---|


Solo 1:

Guitar 1: [keeps playing this reff the whole solo]

  E5             Dsus2         Cmaj7            B7sus4
|----------------------------------------------------------------|
|----------------------------------------------------------------|
|----------4-------------2---------------4---------------2-------|
|--2---2-----2-------------2---------------2---------------2-----|
|--------------2---5---5-----5---3---3-------3---2---2-------2---|
|----------------------------------------------------------------|

Guitar 2:

(3:48)

|--------------------------------------15^^---12---15---14-|
|--15^^--15^^--15^^r---12---15---15^^----------------------|
|----------------------------------------------------------|
|----------------------------------------------------------|
|----------------------------------------------------------|
|----------------------------------------------------------|

(3:53)


|---7--------------9---7---------------10---9---7------------|
|------10---7-------------10---8---7---------------7^^r---5--|
|------------------------------------------------------------|
|------------------------------------------------------------|
|------------------------------------------------------------|
|------------------------------------------------------------|

                         (3:59)

------------------------|--------------------------------------|
------------------------|------12---12-------12-------12---12--|
--7---6---7---6---------|--9---11---11---9---11---9---11---11--|
------------------7-----|--------------------------------------|
----------------------7-|--------------------------------------|
------------------------|--------------------------------------|

           (4:02)

----------|--------------------------------------------------------|
-------12-|--------------------------------------------------------|
---9---11-|--14^^(14)---14\11--------------------------------------|
----------|----------------------14---12-----12---14^^(14)--12-----|
----------|-------------------------------14-------------------14--|
----------|--------------------------------------------------------|

(4:04)

|-------------------------------------------------------------------|
|----------------------------------------------------12---13\12-----|
|--11/12---11------11---12---11^r------11---12---14--------------14-|
|--------------14------------------14-------------------------------|
|-------------------------------------------------------------------|
|-------------------------------------------------------------------|


              (4:07)

------------|---------------------------------------20------------|
--12---13---|--13/15---15/17---17/19---19/20--20---------20-------|
------------|-----------------------------------------------------|
------------|-----------------------------------------------------|
------------|-----------------------------------------------------|
------------|-----------------------------------------------------|

 (4:09)

|--17^^---17^^---15---17p15---14---15p14\12---14p12----------------|
|----------------------------------------------------15---15---14--|
|------------------------------------------------------------------|
|------------------------------------------------------------------|
|------------------------------------------------------------------|
|------------------------------------------------------------------|

--------------------------------------------------------------------|
--12---14\12---10---12---10---8---10---8-------8--------------------|
-------------------------------------------9-------8---7----9---7---|
--------------------------------------------------------------------|
--------------------------------------------------------------------|
--------------------------------------------------------------------|

                                   (4:15)

----------------------------------|---------------------------------|
----------------------------------|---------------------------------|
----------------------------------|--------------7-------7---9---7--|
--9---7---------------------------|--9---7---9-------9--------------|
----------10---7------------------|---------------------------------|
-------------------10------7---7--|---------------------------------|


--------------------------------------------------------------12---|
------8-------8---10---8---10---12---10---12---15---12---15--------|
--9-------9--------------------------------------------------------|
-------------------------------------------------------------------|
-------------------------------------------------------------------|
-------------------------------------------------------------------|


-------12--|--15p12---12---12---15p12---12---12---12---15p12---12--|
--15-------|-------------------------------------------------------|
-----------|-------------------------------------------------------|
-----------|-------------------------------------------------------|
-----------|-------------------------------------------------------|
-----------|-------------------------------------------------------|


--12---12---12---12---12---12---15p12---12---12---12---12---12----|
------------------------------------------------------------------|
------------------------------------------------------------------|
------------------------------------------------------------------|
------------------------------------------------------------------|
------------------------------------------------------------------|


(4:20)

--15^^---15^^---15^^---15---12---15p12---15p12---15---12---12h15p12-|
--------------------------------------------------------------------|
--------------------------------------------------------------------|
--------------------------------------------------------------------|
--------------------------------------------------------------------|
--------------------------------------------------------------------|


-------12---15p12---12h15p12--------12---15p12---12h15p12--------12-|
--15---------------------------15---------------------------15------|
--------------------------------------------------------------------|
--------------------------------------------------------------------|
--------------------------------------------------------------------|
--------------------------------------------------------------------|


--15p12---12---15p12--------12---15p12---12h15p12--------12---15p12-|
-----------------------15---------------------------15--------------|
--------------------------------------------------------------------|
--------------------------------------------------------------------|
--------------------------------------------------------------------|
--------------------------------------------------------------------|

                   (4:24)

--15p12--------12---15^^---15^^---15^---15\-|-----------------------|
----------15--------------------------------|-----------------------|
--------------------------------------------|--12h14---12p11h12p11--|
--------------------------------------------|-----------------------|
--------------------------------------------|-----------------------|
--------------------------------------------|-----------------------|


--------------------------------------------|
--------------------------------------------|
-------11-----------------------------------|
--14--------14---12p11h12p11\9---11p9\7-----|
--------------------------------------------|
--------------------------------------------|


Guitar 1:

|---------------------------------|
|---------------------------------|
|---------------------------------|
|--4---5---4---5---4---5---4---5--|
|--2---3---2---3---2---3---2---3--|
|---------------------------------|

Guitar 2:

|----------------|
|----------------|
|----------------|
|----------------|
|----------------|
|--12\0---12\0---|


Bridge (1/2): [4x]

                                             F5 E5  E5
|---------------------------------------------------------|
|---------------------------------------------------------|
|---------------------------------------------------------|
|--------------------------------------------10\9---9-----|
|---------------------------------------------8\7---7-----|
|--0---0-0-0-0---0---0-0-0-0---0---0-0-0-0----------------|

                                             F5
|---------------------------------------------------------|
|---------------------------------------------------------|
|---------------------------------------------------------|
|--------------------------------------------10-----------|
|--------------------------------------------8------------|
|--0---0-0-0-0---0---0-0-0-0---0---0-0-0-0----------------|

Bridge (2/2):

|--------------------------------------------------|
|--------------------------------------------------|
|--------------------------------------------------|
|--------------------------------------------------|
|---7---5-------5----------------------------------|
|-----------7------7---6---5---3---5---0---3---5---|


|--------------------------------------------------|
|--------------------------------------------------|
|--------------------------------------------------|
|--------------------------------------------------|
|---7---5-------5----------------------------------|
|-----------7------7---6---5---3---5---0---3---5---|


Part: [ 2x: 1st time 1 guitar, 2nd time 2 guitars ]

|-----------------------------------------------------------------|
|-----------------------------------------------------------------|
|-----------------------------------------------------------------|
|-----------------------------------------------------------------|
|--7---5---7---5---7---5---7---5---7---5---7---5---7---5---5---5--|
|--0-------0-------0-------0-------0-------0-------0-------7------|

                                               E5         E5
|-----------------------------------|-----------------------------|
|-----------------------------------|-----------------------------|
|-----------------------------------|-----------------------------|
|-----------------------------------|-----------------7P5---------|
|--7---5---7---5---7---5---7---5----|-------5---7----------7P5----|
|--0-------0-------0-------0--------|---7-------------------------|

|-----------------------------------------------------------------|
|-----------------------------------------------------------------|
|-----------------------------------------------------------------|
|-----------------------------------------------------------------|
|--7---5---7---5---7---5---5---5---7---5---7---5---7---5---5---5--|
|--0-------0-------0-------7-------0-------0-------0-------7------|


   C5   G5   D5   C5
|-----------------------|
|-----------------------|
|-----------------------|
|---5---------7----5----|
|---3----5----5----3----|
|--------3--------------|


Verse:

    E5                   D5       E5                  C5 D5
E|-----------------------------|----------------------------|
B|-----------------------------|----------------------------|
G|-----------------------------|----------------------------|
D|------9------9-----9---7--7--|------9-----9-----9---5--7--|
A|------7------7-----7---5--5--|------7-----7-----7---3--5--|
E|--000---000----000-----------|--000----000---000----------|
    So gather round young         And saddle up your steeds
        warriors now

   E5                  G5  E5     C5   G5   D5   C5
|------------------------------|---------------------|
|------------------------------|---------------------|
|------------------------------|---------------------|
|------7-----7-----7---12--7---|--5---------7----5---|
|------9-----9-----9---10--9---|--3----5----5----3---|
|--000---000---000-------------|-------3-------------|
        Killing scores
      with demon swords

E5                   D5       E5                  C5 D5
E|-----------------------------|----------------------------|
B|-----------------------------|----------------------------|
G|-----------------------------|----------------------------|
D|------9------9-----9---7--7--|------9-----9-----9---5--7--|
A|------7------7-----7---5--5--|------7-----7-----7---3--5--|
E|--000---000----000-----------|--000----000---000----------|
       Now is the death             Swing the judgment
      of doers of wrong                 hammer down

   E5                  G5  E5     C5   G5   D5   C5
|------------------------------|---------------------|
|------------------------------|---------------------|
|------------------------------|---------------------|
|------7-----7-----7---12--7---|--5---------7----5---|
|------9-----9-----9---10--9---|--3----5----5----3---|
|--000---000---000-------------|-------3-------------|
     Safely inside armor
     blood guts and sweat


Chorus:
              E5                       E5    D5
E|-----------------------------|------------------------------|
B|-----------------------------|------------------------------|
G|-----------------------------|------------------------------|
D|-------------9---------------|--------9-----7---------------|
A|-------------7---------------|--------7-----5---------------|
E|-----------------------------|------------------------------|
       The horsemen are                On the leather
        drawing nearer…               steeds they ride…

        D5     C5                      C5     B5
|------------------------------|------------------------------|
|------------------------------|------------------------------|
|------------------------------|------------------------------|
|--------7------5--------------|--------5------4--------------|
|--------5------3--------------|--------3------2--------------|
|------------------------------|------------------------------|
                 They have come to take your life.

              E5                     E5      D5
|-----------------------------|------------------------------|
|-----------------------------|------------------------------|
|-----------------------------|------------------------------|
|-------------9---------------|-------9------7---------------|
|-------------7---------------|-------7------5---------------|
|-----------------------------|------------------------------|
       On through the                  With the four
       dead of night…                  horsemen ride…

         D5     C5                  B5   C5    B5   G5
|------------------------------|------------------------------|
|------------------------------|------------------------------|
|------------------------------|------------------------------|
|--------7------5--------------|-----4----5----4--------------|
|--------5------3--------------|-----2----3----2----5---------|
|------------------------------|--------------------3---------|
                                  Or choose your fate and die.


Part:

|-----------------------------------------------------------------|
|-----------------------------------------------------------------|
|-----------------------------------------------------------------|
|-----------------------------------------------------------------|
|--7---5---7---5---7---5---7---5---7---5---7---5---7---5---5---5--|
|--0-------0-------0-------0-------0-------0-------0-------7------|

                                               E5         E5
|-----------------------------------|-----------------------------|
|-----------------------------------|-----------------------------|
|-----------------------------------|-----------------------------|
|-----------------------------------|-----------------7P5---------|
|--7---5---7---5---7---5---7---5----|-------5---7----------7P5----|
|--0-------0-------0-------0--------|---7-------------------------|
                                                    Oh! Yeah, Yeah!

|-----------------------------------------------------------------|
|-----------------------------------------------------------------|
|-----------------------------------------------------------------|
|-----------------------------------------------------------------|
|--7---5---7---5---7---5---5---5---7---5---7---5---7---5---5---5--|
|--0-------0-------0-------7-------0-------0-------0-------7------|

   C5   G5   D5   C5
|-----------------------|
|-----------------------|
|-----------------------|[2x. 2nd time without the “Oh! Yeah, Yeah!”
|---5---------7----5----|        and add an E5 at the end]
|---3----5----5----3----|
|--------3--------------|


Bridge (1/2): [4x]

                                             F5 E5  E5
|---------------------------------------------------------|
|---------------------------------------------------------|
|---------------------------------------------------------|
|--------------------------------------------10\9---9-----|
|---------------------------------------------8\7---7-----|
|--0---0-0-0-0---0---0-0-0-0---0---0-0-0-0----------------|

                                             F5
|---------------------------------------------------------|
|---------------------------------------------------------|
|---------------------------------------------------------|
|--------------------------------------------10-----------|
|--------------------------------------------8------------|
|--0---0-0-0-0---0---0-0-0-0---0---0-0-0-0----------------|


Solo 2:

Guitar 1: [keeps playing the Bridge]

Guitar 2:

(6:23)

|---------------------------------------------------------14---12-|
|------------------------------------------14--------14-----------|
|---------------------------14--------13--------12----------------|
|------------14--------13--------12-------------------------------|
|-------13--------12----------------------------------------------|
|--12-------------------------------------------------------------|


|--15p12---12---17p12---12---15p14---12---17p15---12---15p14---12--|
|------------------------------------------------------------------|
|------------------------------------------------------------------|
|------------------------------------------------------------------|
|------------------------------------------------------------------|
|------------------------------------------------------------------|


--17p15---12---15p14---12---17p15---12-|--15p14---12---17p15---12--|
---------------------------------------|---------------------------|
---------------------------------------|---------------------------|
---------------------------------------|---------------------------|
---------------------------------------|---------------------------|
---------------------------------------|---------------------------|
---------------------------------------|---------------------------|


--15p14---12---17p15---12---15p14---12---17p15---12---15p14---12--|
------------------------------------------------------------------|
------------------------------------------------------------------|
------------------------------------------------------------------|
------------------------------------------------------------------|
------------------------------------------------------------------|

               (6:30)

--17p15---12--|-----------------------------------------|---|
--------------|--15^^-----15^^------15^^---15^^---15^^--|---|
--------------|-----------------------------------------|---|
--------------|-----------------------------------------|---|
--------------|-----------------------------------------|---|
--------------|-----------------------------------------|---|


--12------------------12------------------12-----------------|
-------15p12---12----------15p12---12----------15p12---12----|
---------------14^^----------------14^^----------------14^^--|
-------------------------------------------------------------|
-------------------------------------------------------------|
-------------------------------------------------------------|


--12------------------12------------------12-----------------|
-------15p12---12----------15p12---12----------15p12---12----|
---------------14^^----------------14^^----------------14^^--|
-------------------------------------------------------------|
-------------------------------------------------------------|
-------------------------------------------------------------|

                                          (6:37)

--12------------------12------------------|--12---15p12-------|
-------15p12---12----------15p12---12-----|---------------15--|
---------------14^^----------------14^^---|-------------------|
------------------------------------------|-------------------|
------------------------------------------|-------------------|
------------------------------------------|-------------------|


--------------------------------------------------------------|
--12--------12---15p12----------------------------------------|
-------14----------------14---12--------12---14p12------------|
-----------------------------------14----------------14---12--|
--------------------------------------------------------------|
--------------------------------------------------------------|

                  (6:39)

----------------------|----------------------------------------|
----------------------|----------------------------------------|
----------------------|----------------------------------------|
----------------------|---------------7---9p7-------7---9---9--|
--14---12---10--------|-----------9-------------9--------------|
------------------12--|--7---10--------------------------------|

                        (6:41)

-----------------------|--19---19---19---22---19---19---19---19-|
-----------------------|----------------------------------------|
--7---9^^---9^^---9^^--|----------------------------------------|
-----------------------|----------------------------------------|
-----------------------|----------------------------------------|
-----------------------|----------------------------------------|


--19---19---19---22---19---19---19---19---19---19---19---19---|
--------------------------------------------------------------|
--------------------------------------------------------------|
--------------------------------------------------------------|
--------------------------------------------------------------|
--------------------------------------------------------------|


--22---19---19---19---19---19---19---19---22---19---19---19---|
--------------------------------------------------------------|
--------------------------------------------------------------|
--------------------------------------------------------------|
--------------------------------------------------------------|
--------------------------------------------------------------|


--19---19---19---19---22---19---19---19---19---19---19---19---|
--------------------------------------------------------------|
--------------------------------------------------------------|
--------------------------------------------------------------|
--------------------------------------------------------------|
--------------------------------------------------------------|

                                          (6:45)

--22---19---19---19---19---19---19---19--|--22^^-----22^^-----|
-----------------------------------------|--------------------|
-----------------------------------------|--------------------|
-----------------------------------------|--------------------|
-----------------------------------------|--------------------|
-----------------------------------------|--------------------|


--19---22p19--------19------------------------------------19--|
---------------22--------22---19---22p19--------19---22-------|
-------------------------------------------21-----------------|
--------------------------------------------------------------|
--------------------------------------------------------------|
--------------------------------------------------------------|


--22p19--------------------------------------------19---22p19--|
----------22---19\18---19---22p19--------18---22---------------|
------------------------------------21-------------------------|
---------------------------------------------------------------|
---------------------------------------------------------------|
---------------------------------------------------------------|

                                                (6:50)

----------------------------------------------|---------------|
--22---19\18---19---22p19---------------------|---------------|
----------------------------21---19--------19-|--21^---21^^---|
--------------------------------------21------|---------------|
----------------------------------------------|---------------|
----------------------------------------------|---------------|


------------12---15p12---14p12--------12---15p12---14p12---|
-------14------------------------14------------------------|
--21^------------------------------------------------------|
-----------------------------------------------------------|
-----------------------------------------------------------|
-----------------------------------------------------------|


-------12---15p12---14p12--------12---15p12---14p12---11---|
--14------------------------14-----------------------------|
-----------------------------------------------------------|
-----------------------------------------------------------|
-----------------------------------------------------------|
-----------------------------------------------------------|

 (6:53)

--15---19p12h15p12---19p15p12---19p15p12---19p15p12------|
---------------------------------------------------------|
---------------------------------------------------------|
---------------------------------------------------------|
---------------------------------------------------------|
---------------------------------------------------------|

                                             (6:55)

--19p15p12---19p15p12---19p15p12---19p15p12---17p14---0---|
----------------------------------------------------------|
----------------------------------------------------------|
----------------------------------------------------------|
----------------------------------------------------------|
----------------------------------------------------------|


--17p14---0---17p14---0---17p14---0---17p14---0---17p14---0--|
-------------------------------------------------------------|
-------------------------------------------------------------|
-------------------------------------------------------------|
-------------------------------------------------------------|
-------------------------------------------------------------|

                                     (6:58)

--17p14---0---17p14---0---22p19---0---22p19---0---22p19---0--|
-------------------------------------------------------------|
-------------------------------------------------------------|
-------------------------------------------------------------|
-------------------------------------------------------------|
-------------------------------------------------------------|

                (6:59)

--22p19---22--|--22^^---22^^---22^^---|
--------------|-----------------------|
--------------|-----------------------|
--------------|-----------------------|
--------------|-----------------------|
--------------|-----------------------|


Conclusion:

|-----------------------------------------------------------------|
|-----------------------------------------------------------------|
|-----------------------------------------------------------------|
|-----------------------------------------------------------------|
|--7---5---7---5---7---5---7---5---7---5---7---5---7---5---5---5--|
|--0-------0-------0-------0-------0-------0-------0-------7------|

                                               E5         E5
|-----------------------------------|-----------------------------|
|-----------------------------------|-----------------------------|
|-----------------------------------|-----------------------------|
|-----------------------------------|-----------------7P5---------|
|--7---5---7---5---7---5---7---5----|-------5---7----------7P5----|
|--0-------0-------0-------0--------|---7-------------------------|


|-----------------------------------------------------------------|
|-----------------------------------------------------------------|
|-----------------------------------------------------------------|
|-----------------------------------------------------------------|
|--7---5---7---5---7---5---5---5---7---5---7---5---7---5---5---5--|
|--0-------0-------0-------7-------0-------0-------0-------7------|

   C5   G5   D5   C5    E5
|---------------------------|
|---------------------------|
|---------------------------|
|---5---------7----5--------|
|---3----5----5----3-----2--|
|--------3---------------0--|

Kill 'em All is the Best Metallica Album!
Metal up your ass!
gonza
comments
print report bad tab
6 comments total. Showing first comments.
+1 reply
Dude!"#¤%&/() wrote on February 26 2009, 11:52 am

Yeahh!! nice tab man. METAL UP YOUR ASS!

0 reply
Gonza wrote on March 15 2009, 06:44 pm

Please rate...

+2 reply
wild52 wrote on March 28 2009, 02:07 am

i rated 5 this tab kick ****in ass

I want to post or [tab]
guest
You may want to rate the tab now too:
select rating
Please do not post tabs as comments. Select "correction" instead!