Oops, an error
Loading. Please wait.

The God That Failed Tab

ver1
ver1

Solo

Whole song

More versions @911Tabs.com
67,659 views 271 this week
12 commentsread comments
1 2 3 4 5
accurate
x 26
Autoscroll
+/-
esc
set tempo
stop
Contributor
WARNING: You are trying to view
                                    content from Ultimate-Guitar.com
                                    in an unauthorized application,
                                    which is prohibited.

                                    Please use an official Ultimate
                                    Guitar Tabs application for iPhone,
                                    iPad or Android to access legitimate
                                    chords, guitar, bass, and drum tabs
                                    from Ultimate-Guitar.com database.

                                    Type "ultimate guitar tabs" in Apple
                                    App Store's or Android Market's
                                    search to find the application.
key
/ slide
~ tremolo
^ bend
PM palm mute
p pull off
h hammer on
This song took me forever to figure out but i think i nailed it.
I tried to make it easy as possible to understand..hope you like it!

[song begins with bass solo]

e|------------------------------------------------------------------|
B|------------------------------------------------------------------|
G|-------------12-12/9---------------------------16-16/9------------|
D|------------------------------------------------------------------|
A|--10-10/7---------------10-10/7-----14-14/7-------------14-14/7---|
E|------------------------------------------------------------------|

e|-----------------------------------------------------------------------------|
B|-----------------------------------------------------------------------------|
G|-----------------------------------------------------------------------------|
D|-------------9-9-------------9-----------7----------------------------9------|
A|--10-10-7--------7---10-10-7--7--10-10-7--7-10-10-7---5-5-7---10-10-7---7----|
E|----------0--------0--------------------------------0-------0----------------|

e|-----------------------------------|
B|-----------------------------------|
G|-----------------------------------|
D|--4h5p4----------------------------|
A|--------7-5---4/2------------------|
E|-------------------5-3-------------|

e|----------------------------------------|
B|----------------------------------------|
G|----------------------------------------| x4
D|----------------------------------------|
A|--2-2--2---3--2-2--2---3--2-2-2-5--2--3-|
E|--0-0--0---1--0-0--0---1--0-0-0-3--0--1-|
PM  - -  -      - -  -      - - -

e|---------------------------------------|
B|---------------------------------------|
G|---------------------------------------| x2
D|---------------------------------------|
A|--3-3-3-----3-3-3-----3-3-3/5----------|
E|--1-1-1--0--1-1-1--0--1-1-1/3--0-------|
PM  - - -     - - -     - - 


e|-----------------------------------------------------------------------------|
B|-----------------------------------------------------------------------------|
G|-----------------------------------------------------------------------------|
D|-------------9-9-------------9-----------7---------9------------9----9/7-----|
A|--10-10-7--------7---10-10-7--7--10-10-7---10-7--7---7--10-7--7---7--7/5-----|
E|----------0--------0---------------------------------------------------------|

e|-----------------------------------------------------------------------------|
B|-----------------------------------------------------------------------------|
G|-----------------------------------------------------------------------------|
D|-------------------------------------------9-------------9-----9/7-----------|
A|----------9--------------9----9/7--10-7--7---7-7-10-7--7---7---7/5-----------|
E|--10-7--7---7--7-10-7--7---7--7/5----------------------------0---------------|

e|-----------------------------------------------------------------------------|
B|-----------------------------------------------------------------------------|
G|-----------------------------------------------------------------------------|
D|-----------------------------------------------------------------------------|
A|----------9--------------9--------------9--------------9---------------------|
E|--10-7--7---7--7-10-7--7---7--7-11-7--7---7--7-11-7--7---7---7/0-------------|

e|-----------------------------------------------------------------------------|
B|-----------------------------------------------------------------------------|
G|-----------------------------------------------------------------------------|
D|-------------9-9-------------9-----------7----------------------------9------|
A|--10-10-7--------7---10-10-7--7--10-10-7--7-10-10-7---5-5-7---10-10-7---7----|
E|----------0--------0--------------------------------0-------0----------------|

e|-----------------------------------|
B|-----------------------------------|
G|-----------------------------------|
D|--4h5p4----------------------------|
A|--------7-5---4/2------------------|
E|-------------------5-3-------------|

e|----------------------------------------|
B|----------------------------------------|
G|----------------------------------------| x2
D|----------------------------------------|
A|--2-2--2---3--2-2--2---3--2-2-2-5--2--3-|
E|--0-0--0---1--0-0--0---1--0-0-0-3--0--1-|
PM  - -  -      - -  -      - - -

e|---------------------------------------|
B|---------------------------------------|
G|---------------------------------------| x2
D|---------------------------------------|
A|--3-3-3-----3-3-3-----3-3-3/5----------|
E|--1-1-1--0--1-1-1--0--1-1-1/3--0-------|
PM  - - -     - - -     - -

e|-----------------------------------------------------------------------------|
B|-----------------------------------------------------------------------------|
G|-----------------------------------------------------------------------------|
D|-------------9-9-------------9-----------7---------9-----------9--------9/7--|
A|--10-10-7--------7---10-10-7--7--10-10-7---10-7--7---7--7-10-7---7---7--7/5--|
E|----------0--------0---------------------------------------------------------|

e|-----------------------------------------------------------------------------|
B|-----------------------------------------------------------------------------|
G|-----------------------------------------------------------------------------|
D|-------------------------------------------9-------------9-----9/7-----------|
A|----------9--------------9----9/7--10-7--7---7-7-10-7--7---7---7/5-----------|
E|--10-7--7---7--7-10-7--7---7--7/5----------------------------0---------------|

e|-----------------------------------------------------------------------------|
B|-----------------------------------------------------------------------------|
G|-----------------------------------------------------------------------------|
D|-----------------------------------------------------------------------------|
A|----------9--------------9--------------9--------------9---------------------|
E|--10-7--7---7--7-10-7--7---7--7-11-7--7---7--7-11-7--7---7---7/0-------------|
Solo:
e|-----------------------------------------------------------------------------|
B|-------------------------------------------------------12--------------------|
G|--------------------------------------------------14^~----14-12-11-12-11-----|
D|----------------------------------------------14--------------------------14-|
A|--7h10p7h10p7h10p7h10p7---6h9p6h9p6h9p6h9p6----------------------------------|
E|-----------------------------------------------------------------------------|

e|------------------------------0/0/0/0/0/0/0/0/0/0/0/0/0/0/0/0/--0/0--0--0--0-|
B|------------------------------5/7/8/10/12/8/7/8/7/5/4/5/7/8/10--0/12-12-12-12|
G|--11h12p11/7---7---7-7--7/9--------------------------------------------------|
D|-----------------9-----------------------------------------------------------|
A|-----------------------------------------------------------------------------|
E|-----------------------------------------------------------------------------|

e|--0--0--0--0-----------------------------------------------------------------|
B|--12-12-12-12---------------------------------------15^~~~-------------------|
G|--------------12-14-14^p12----14^p12--14^p12----12--14^~~~--9/11/12/14/16/14/|
D|---------------------------14----------------14------------------------------|
A|------------------------------------------------------------7/9/10/12/14/12/-|
E|-----------------------------------------------------------------------------|

e|-------------------------------------------14h15p14----14-15-17-19--19-19-19-|
B|----------------------14h15p14----14-15-17----------17-----------------------|
G|12/16---9--7-6---6-7-----------16--------------------------------------------|
D|---------------9-------------------------------------------------------------|
A|10/14------------------------------------------------------------------------|
E|-----------------------------------------------------------------------------|

e|19-19---19-19-19-19--19-19-19-19-19--19-19-19-19--19-19p17p15-19--1917p15-19-|
B|-----------------------------------------------------------------------------|
G|-----------------------------------------------------------------------------|
D|-----------------------------------------------------------------------------|
A|-----------------------------------------------------------------------------|
E|-----------------------------------------------------------------------------|

e|19p17p15----15h17-19p17p15h17p15----15h17-19-19p17p15----19p17p15------------|
B|---------17----------------------17-------------------17----------17---------|
G|-----------------------------------------------------------------------------|
D|-----------------------------------------------------------------------------|
A|-----------------------------------------------------------------------------|
E|-----------------------------------------------------------------------------|

e|--19p17p15----19p17p15----15-19p17p15/14-17p15p14/12-15p14p12/10-14p12p10/9--|
B|-----------17----------17----------------------------------------------------|
G|-----------------------------------------------------------------------------|
D|-----------------------------------------------------------------------------|
A|-----------------------------------------------------------------------------|
E|-----------------------------------------------------------------------------|

e|-12p10p9/7-10p9p7---7--------------------------------------------------------|
B|------------------8---8------------------------------------------------------|
G|-----------------------------------------------------------------------------|
D|------------------------4h5p-------------4h5p--------------------------------|
A|-----------------------------7-5-4/2----------7-5-4/2------------------------|
E|-------------------------------------5-3--------------5-3--------------------|

e|22^22~~~19-22-19h22p19----19-----19----19----19----19----19----19--22p19-----|
B|-----------------------22----22^----22^---22^---22^---22^---22^----------22--|
G|-----------------------------------------------------------------------------|
D|-----------------------------------------------------------------------------|
A|-----------------------------------------------------------------------------|
E|-----------------------------------------------------------------------------|

e|19-22p19-22p19----19-22p19-22p19----19-22p19----19-22p19-22p19--19-----------|
B|---------------22---------------22----------22--------------------22-22^22p19|
G|-----------------------------------------------------------------------------|
D|-----------------------------------------------------------------------------|
A|-----------------------------------------------------------------------------|
E|-----------------------------------------------------------------------------|

e|-----------------------------------------------------------------------------|
B|-22^22p19--------------------------------------------------------------------|
G|----------21--19----19-21^-21-21-21-21-21-21-21-21-19------------------------|
D|-----------------21-----------------------------------12---------------------|
A|-----------------------------------------------------------------------------|
E|-----------------------------------------------------------------------------|

e|-----------------------------------|
B|-----------------------------------|
G|-----------------------------------|
D|-----------------------------------|
A|----------9--------------9----9/7--|
E|--10-7--7---7--7-10-7--7---7--7/5--|

e|-----------------------------------------------------------------------------|
B|-----------------------------------------------------------------------------|
G|-----------------------------------------------------------------------------|
D|-----------------------------------------------------------------------------|
A|----------9--------------9--------------9--------------9---------------------|
E|--10-7--7---7--7-10-7--7---7--7-11-7--7---7--7-11-7--7---7---7/0-------------|

e|------------------------------------------------------------------|
B|------------------------------------------------------------------|
G|-------------12-12/9---------------------------16-16/9------------|
D|------------------------------------------------------------------|
A|--10-10/7---------------10-10/7-----14-14/7-------------14-14/7---|
E|------------------------------------------------------------------|


e|----------------------------------------|
B|----------------------------------------|
G|----------------------------------------| x2
D|----------------------------------------|
A|--2-2--2---3--2-2--2---3--2-2-2-5--2--3-|
E|--0-0--0---1--0-0--0---1--0-0-0-3--0--1-|
PM  - -  -      - -  -      - - -

e|----------------------------------|
B|----------------------------------|
G|----------------------------------|
D|--------9-----------9--------9/7--|
A|10-7--7---7--7-10-7---7---7--7/5--|
E|----------------------------------|

e|-----------------------------------------------------------------------------|
B|-----------------------------------------------------------------------------|
G|-----------------------------------------------------------------------------|
D|-------------------------------------------9-------------9-----9/7-----------|
A|----------9--------------9----9/7--10-7--7---7-7-10-7--7---7---7/5-----------|
E|--10-7--7---7--7-10-7--7---7--7/5----------------------------0---------------|

e|-----------------------------------------------------------------------------|
B|-----------------------------------------------------------------------------|
G|-----------------------------------------------------------------------------|
D|-----------------------------------------------------------------------------|
A|----------9--------------9--------------9--------------9---------------------|
E|--10-7--7---7--7-10-7--7---7--7-11-7--7---7--7-11-7--7---7---7/0-------------|

e|-----------------------------------------------------------------------------|
B|-----------------------------------------------------------------------------|
G|-----------------------------------------------------------------------------|
D|-----------------------------------------------------------------------------|
A|----------------------------2----------------------------9-------------------|
E|7p0-0-3p0--0-0--0-0-3p0--0---0--0-3p0--0-0--0-0-10p7--7---7--7-10p7--7-7--7-7|

e|-----------------------------------------------------------------------------|
B|-----------------------------------------------------------------------------|
G|-----------------------------------------------------------------------------|
D|---------9--------------9------------9--------------9-----------------9------|
A|-10p7--7---7--7-10p7--7---7--10p7--7---7--7-10p7--7---7--7--10-7--7-7---7-7-7|
E|-----------------------------------------------------------------------------|

e|-----------------------------------------------------------------------------|
B|-----------------------------------------------------------------------------|
G|-----------------------------------------------------------------------------|
D|-----------9---------4h5p---------------4h5p4--------------4h5p4-------------|
A|-10-7--7-7---7-7-7--------7-5--4/2------------7-5-4/2------------7-5-4/2-----|
E|-----------------------------------5--3---------------5--3---------------5--3|

e|------------0-|
B|----------0---|
G|--------0-----|...let ring
D|------2-------|
A|----2---------|
E|--0-----------|       THE END
12 comments total. Showing first comments.
0 reply
LPfan4603 wrote on September 13 2004, 12:00 am

They Tuned half a step down for this song (Eb Ab Db Gb Bb Eb)

0 reply
element123 wrote on December 21 2004, 12:00 am

There are many many faults in this tab , try to correct them

0 reply
locked away wrote on February 22 2005, 12:00 am

yo this tabs rocks! it gave me something to do for a talent show.
LOCKED AWAY,

I want to post or [tab]
guest
You may want to rate the tab now too:
select rating
Please do not post tabs as comments. Select "correction" instead!