Oops, an error
Loading. Please wait.

The Judas Kiss Tab

ver1
ver1

Intro

Solo

Whole song

More versions @911Tabs.com
169,626 views 63 this week
20 commentsread comments
1 2 3 4 5
excellent!
x 44
Autoscroll
+/-
esc
set tempo
stop
Contributor
Difficulty
intermediate
NEW! There's an official Ultimate Guitar app which is ideal
for learning songs when you're away from computer. Get the app
WARNING: You are trying to view
                                    content from Ultimate-Guitar.com
                                    in an unauthorized application,
                                    which is prohibited.

                                    Please use an official Ultimate
                                    Guitar Tabs application for iPhone,
                                    iPad or Android to access legitimate
                                    chords, guitar, bass, and drum tabs
                                    from Ultimate-Guitar.com database.

                                    Type "ultimate guitar tabs" in Apple
                                    App Store's or Android Market's
                                    search to find the application.
Metallica - The Judas Kiss
Heard the leak on youtube, and this is definately my favourite 
song from Death Magnetic. Here’s the first 4 minutes, the other
3 will come in the next few days, keep a eye out :)

Tuning: Standard E

CHeck out my cover of this song:
http://au.youtube.com/watch?v=iJL2BAghoM4
Check out my band: 
www.myspace.com/triameraband

0:0
E|--------------------------|
A|--------------------------|
G|--------------------------|
D|--------------------------|
A|-----5-----------5---7----|
E|-0-2s3---0-0-0-0-3---5----|

0:13
E|-------------------------|------------------------------------|
B|-------------------------|------------------------------------|
G|-------------------------|-----------------------9-12-----9---|
D|-------------------------|-9---10---12---12--12-------12------|
A|-------------------------|------------------------------------|
E|-3---5---2---3---5---3---|------------------------------------|
/// Guitar 1
\\\ Guitar 2
E|-------------------------|------------------------------------|
B|-------------------------|------------------------------------|
G|-------------------------|------------------------------------|
D|-------------------------|-------------------------10---------|
A|-2---3---0---2-----------|-10---12---9---10--10-12----10--7---|
E|-----------------1---0---|------------------------------------|

0:21
E|---------------x----|
B|----------------x---|
G|-----------------x--|
D|------------------x-|
A|-2---2---2---2------|
E|-0---0---0---0------|

0:25
E|---------------------------|
B|---------------------------|
G|---------------------------|
D|-8^-------8^---------------|
A|-7^-------7^---------------|
E|-----0--0-----0--0-000-000-|

0:47
E|--------------------------|--------------------------------|
B|--------------------------|--------------------------------|
G|--------------------------|--------------------------------|
D|-11------11---------------|-11------11---------------------|
A|-9---11--9---10-----------|-9---11--9---10--10--10--10--10-|
E|-----9-------8--8-888-888-|-----9-------8---8---8---8---8--|

E|----------------x--|
B|----------------x--|
G|----------------x--|
D|-11------11-----x--|
A|-9---11--9---10----|
E|-----9-------8-----|

0:58
E|-------------------------------------------------|
B|-------------------------------------------------|
G|-------------------------------------------------|
D|-------------------------------------5s7s5---5s7-|
A|-------------------------------------------------|
E|-3p0-0-0-3p0-3p0-0-0-3p0-3p0-0-0-3p0-3s5s3-0-3s5-|

1:07
E|-------------------------------------------------|
B|-------------------------------------------------|
G|-------------------------------------------------|
D|-------------------------------------5s7s5---5s7-|
A|-------------------------------------------------|
E|-3p0-0-0-0-0-3p0-0-0-0-0-3p0-0-0-0-0-3s5s3-0-3s5-|

1:14
E|-----------------------|
B|-----------------------|
G|-7-------5-----12-9~~--|
D|-7-------5-------------|
A|-5-------3-------------|
E|-5-------3-------------|

1:39
E|------------------------------|
B|------------------------------|
G|------------------------------|
D|------------------------------|
A|---5----5----5----5-----------|
E|-0-3--0-3--0-3--0-3--x-x-x-x--|

1:44
E|--------------------------------------|-------------------------------|
B|--------------------------------------|-------------------------------|
G|--------------------------------------|-------------------------------|
D|--------9s10--10--10----7s9---9--9----|-9s10--10--10-10----7s9---9----|
A|-2------7s8---8---8--88-5s7---7--7-77-|-7s8---8---8--8--88-5s7---7-77-|
E|-0--0-00----x---------------z---------|-----x------------------x------|

1:52
E|----------------|
B|----------------|
G|----------------|
D|----------------|
A|-7--------------|
E|-5-555555555555-|

2:04
E|------------------------------|
B|------------------------------|
G|------------------------------|
D|------------------------------|
A|---5----5----5----5-----------|
E|-0-3--0-3--0-3--0-3--x-x-x-x--|

2:10
E|------------------------|
B|------------------------|
G|-----------------------|
D|----------2----2-------|
A|-4--4-----0----0-------|
E|-2--2---2----2----2----|

3:52
E|--------------------------|--------------------------|
B|--------------------------|--------------------------|
G|--------------------------|--------------------------|
D|-11------11---------------|-11------11---------------|
A|-9---11--9---10-----------|-9---9---9---8------------|
E|-----9-------8--8-888-888-|-----7-------6--6-666-666-|

4:03
E|------------------------------|
B|------------------------------|
G|------------------------------|
D|------------------------------|
A|-----4--------3-------0-------|
E|-2--------2-------0h2---2-0h1-|

E|--------------------------------|
B|--------------------------------|
G|--------------------------------|
D|-4--------4---------------------|
A|-----4--------3---0-2-3-4-------|
E|----------------------------1-2-|

4:26
E|-----------------|
B|-----------------|
G|-----------------|
D|-----------------|
A|-2---2---2---2---|
E|-0---0---0---0---|

4:30
E|-----------------------|
B|-----------------------|
G|-----------------------|
D|-----------0-----------|
A|-----------0---2---2---|
E|-0-0--0-0------0---0---|

Solo
4:30
E|-------------------------|-----------------------------|
B|-------------------------|-15-------15-----------------|
G|-------------------15----|-15^^-----15vv-12--------12--|
D|-------------14----------|-------------------14-14-----|
A|-------13----------------|-----------------------------|
E|-12----------------------|-----------------------------|

4:44
E|-----------------------------------|
B|-------------12---14^^-p12----12^--|
G|-------------12---14^^-p12----12^--|
D|-14-14-14-14---------------14------|
A|-----------------------------------|
E|-----------------------------------|

4:52
E|-------------------------------|
B|--------------------------12^--|
G|-------------s16-12-------12^--|
D|-14-14-14-14----------14-------|
A|-------------------------------|
E|-------------------------------|

4:54
E|-10p8p7--------10p8p7---------|
B|--------10p8p7--------10p8p7--|
G|------------------------------|
D|------------------------------|
A|------------------------------|
E|------------------------------|

4:56
E|-12p10p8---------12p10p8----------|
B|---------12p10p8---------12p10p8--|
G|----------------------------------|
D|----------------------------------|
A|----------------------------------|
E|----------------------------------|

4:57
E|-14p12p10----------14p12p10-----------|
B|----------14p12p10----------14p12p10--|
G|--------------------------------------|
D|--------------------------------------|
A|--------------------------------------|
E|--------------------------------------|

4:59
E|-15p14p12----------15p14p12-----------|
B|----------15p14p12----------15p14p12--|
G|--------------------------------------|
D|--------------------------------------|
A|--------------------------------------|
E|--------------------------------------|

5:00
E|-19p17p15----------19p17p15----------19p17p15----------19^----|
B|----------19p17p15----------19p17p15----------19p17p15--------|
G|--------------------------------------------------------------|
D|--------------------------------------------------------------|
A|--------------------------------------------------------------|
E|--------------------------------------------------------------|

5:02
This sounds to me like a tremelo pick with both strings
E|-x-v-v-v-v-v-v-v-v-v-v-|
B|-x-v-v-v-v-v-v-v-v-v-v-|
G|-----------------------|
D|-----------------------|
A|-----------------------|
E|-----------------------|

5:03
E|-------------------------------|
B|-------------------------------|
G|-2b4----b2p0h2p0h2p0h2p0h2p0h2-|
D|-------------------------------|
A|-------------------------------|
E|-------------------------------|

5:07
E|---------------------------------------|
B|---------------------------------------|
G|-2^^-0h2p0-----------0-----------------|
D|-----------2p0---0h2---0h2-0h3-0h2-0h3-|
A|---------------2-----------------------|
E|---------------------------------------|

5:08
E|-----------------------------------------|
B|-----------------------------------------|
G|-0h2-0h3-0h2-0h3-0h5h7-0h7h8-0h5h7-0h7h8-|
D|-----------------------------------------|
A|-----------------------------------------|
E|-----------------------------------------|

5:11
E|-------------------------------------------------------17s--|
B|-------------------11h13h14-11h13h14-14h15h17-14h15h17------|
G|-12h14h15-12h14h15------------------------------------------|
D|------------------------------------------------------------|
A|------------------------------------------------------------|
E|------------------------------------------------------------|

5:14
E|-19-17-14-19-17-14-19-17-14-19-17-14-19-17-14-19-17-14-etc--|
B|------------------------------------------------------------|
G|------------------------------------------------------------|
D|------------------------------------------------------------|
A|------------------------------------------------------------|
E|------------------------------------------------------------|

5:20
E|-17p15p14----------17p15p14-17p15p14----------17p15p14-|
B|----------17p15p14-------------------17p15p14----------|
G|-------------------------------------------------------|
D|-------------------------------------------------------|
A|-------------------------------------------------------|
E|-------------------------------------------------------|

5:27
E|-19p17p15-19p17p15-19p17p15-19p17p15-etc-x-x-x-x-x-x-x-x-x-|
B|-----------------------------------------x-x-x-x-x-x-x-x-x-|
G|-----------------------------------------------------------|
D|-----------------------------------------------------------|
A|-----------------------------------------------------------|
E|-----------------------------------------------------------|

E|------------------------------|
B|-2b4~~~~~~~~~~~~~~------------|
G|------------------------------|
D|------------------------------|
A|------------------------------|
E|------------------------------|

Riff
5:30
E|-----------------------|
B|-----------------------|
G|-----------------------|
D|---x-----------x-------|
A|---x-----------x-------|
E|-x-x---------x-x-------|

5:34
E|--------------------------|--------------------|
B|--------------------------|--------------------|
G|--------------------------|--------------------|
D|-11------11---------------|--------------------|
A|-9---11--9---10-----------|--------------------|
E|-----9-------8--8-888-888-|--8-888-888-888-888-|

Solo 2
5:40
E|------------------------------------------------------------------|
B|-12-12--12--12--12--------------------14-14--14--14---------------|
G|-12-12--12--12--12--------------------14-14--14--14--14-12-14-12--|
D|---------------------14-12-14---12-14-----------------------------|
A|------------------------------------------------------------------|
E|------------------------------------------------------------------|

5:45
E|-------------------------------------------------|
B|-14^--12---14^--12---14-12-14^--12------15--17---|
G|-14^--12---14^--12---14-12-14^--12--s16----------|
D|-------------------------------------------------|
A|-------------------------------------------------|
E|-------------------------------------------------|

5:50
E|-------------------------|
B|---5------------5--------|
G|-----5^-5^--4h6---6-4h5--|
D|-4-----------------------|
A|-------------------------|
E|-------------------------|

5:57
E|----------------------------|
B|---5------------5-5-----7-7-|
G|-----5^-5^--4h6-----4h6-----|
D|-4--------------------------|
A|----------------------------|
E|----------------------------|

6:00
E|----------------------9s---|
B|---------5---7---10--------|
G|-----6---------------------|
D|-4-------------------------|
A|---------------------------|
E|---------------------------|

6:04
E|--------------------------------------|
B|----12-----12------12------12---------|
G|----12-----12------12------12-x-x-x-x-|
D|-14-----14------14------14------------|
A|--------------------------------------|
E|--------------------------------------|

6:10
E|---------------------------------------|
B|-^^^^^^^^^^^^^^^-----------------------|
G|-9-9-9-9-9-9-9-9-br9-br9-br9-br9p7-----|
D|-----------------------------------9---|
A|---------------------------------------|
E|---------------------------------------|

6:15
E|-------------------------------|
B|-------------------------------|
G|-7h8-9----------7h8-9----------|
D|--------7h8-9---------7--h8-9--|
A|-------------------------------|
E|-------------------------------|

6:18
E|----------------------------------------|
B|----------------------------------------|
G|----------------------------------------|
D|----------------------------------------|
A|-7p5-7p5-7p5-7p5-5--7--5-----5----------|
E|--------------------------7-----7--0----|

Post Solo Riff
6:20
E|----------------------------|-------------------------------|
B|----------------------------|-------------------------------|
G|----------------------------|-------------------------------|
D|----------------------------|-------------------------------|
A|-7------7h8---8------5h7-7--|-7------7h8---8------5h7-7b-7--|
E|-0--0-0-0---0-0--0-0-0---0--|-0--0-0-0---0-0--0-0-0---0--0--|

E|-------------------------------|
B|-------------------------------|
G|-------------------------------|
D|-------------------------------|
A|-8------8h10-10-10-10-10-7-7-7-|
E|-0--0-0-0----------------------|

6:52
E|-----------------|-----------------|-----------------|-----------------|
B|-----------------|-----------------|-----------------|-----------------|
G|-----------------|-----------------|-----------------|-----------------|
D|-----------------|-----------------|-----------------|-----------------|
A|-----------------|-----------------|-----------------|-----------------|
E|-222-2-2-2-2-2-2-|-333-3-3-3-3-3-3-|-444-4-4-4-4-4-4-|-555-5-5-5-5-5-5-|

6:58
E|----------|----------|----------|----------|
B|----------|----------|----------|----------|
G|----------|----------|----------|----------|
D|---etc----|----etc---|----etc---|---etc----|
A|----------|----------|----------|----------|
E|-66666666-|-77777777-|-88888888-|-99999999-|

Ending
7:47
E|------------------------------|
B|------------------------------|
G|------------------------------|
D|-----6-------5----------------|
A|-4---4---4---3--2-4-7--4--2-1-|
E|-2-------2------0-2-5--2--0-0-|

E|----------------------|
B|----------------------|
G|----------------------|
D|-----6-------5--------|
A|-4---4---4---3---4-x--|
E|-2-------2-------2-x--|
comments
print report bad tab
20 comments total. Showing first comments.
0 reply
Gresp wrote on September 6 2008, 06:45 am

Not full, but ****ing great tab man.

0 reply
guitarfreakjj wrote on September 6 2008, 12:31 pm

best tab so far 4* b/cause not complete
get it full, if i could - more than 5*

0 reply
Teh Wheelz wrote on September 7 2008, 01:09 am

As said, 4* because it's not full, but all of it is very accurate.

I want to post or [tab]
guest
You may want to rate the tab now too:
select rating
Please do not post tabs as comments. Select "correction" instead!