Oops, an error
Loading. Please wait.

The Mechanix Tab

1,217 views 1 this week
6 commentsread comments
1 2 3 4 5
accurate
x 2
Autoscroll
+/-
esc
set tempo
stop
Contributor
Difficulty
intermediate
Hey! There's an official Ultimate Guitar app which is ideal
for learning songs when you're away from computer. Get the app
WARNING: You are trying to view
                                    content from Ultimate-Guitar.com
                                    in an unauthorized application,
                                    which is prohibited.

                                    Please use an official Ultimate
                                    Guitar Tabs application for iPhone,
                                    iPad or Android to access legitimate
                                    chords, guitar, bass, and drum tabs
                                    from Ultimate-Guitar.com database.

                                    Type "ultimate guitar tabs" in Apple
                                    App Store's or Android Market's
                                    search to find the application.
                                  THE MECHANIX
                            As recorded by Metallica
                     (From the 1982 EP NO LIFE TIL' LEATHER)

Words and Music by Dave Mustaine
Arranged by Metallica
Transcribed by Rick Dobbins

Gtr I (E A D G B E) - 'James Hetfield'
Gtr II (E A D G B E) - 'Dave Mustaine'
Gtr III (E A D G B E) - 'Dave Mustaine - Solo'

 Intro
  Fast Rock Q=217(8=s8)
  N.C.
 4/4
  Gtr I
  PM------------------------------------------------|
  E E E E E E E E   E E E E E E E E   E E E E E E E E   E E E E E E E E
|-----------------|-----------------|-----------------|-----------------|
|-----------------|-----------------|-----------------|-----------------|
|-----------------|-----------------|-----------------|-----------------|
|-----------------|-----------------|-----------------|-------5-7p5-----|
|-7-5-7-5-7-5-7-5-|-7-5-7-5-7-5-5-5-|-7-5-7-5-7-5-5-5-|---5h7-------7p5-|
|-0---0---0---0---|-0---0---0---7---|-0---0---0---7---|-7---------------|


                                      C5 G5 D5 C5
  PM------------------------------|
  E E E E E E E E   E E E E E E E E   Q  Q  Q  Q
|-----------------|-----------------|-------------|
|-----------------|-----------------|-------------|
|-----------------|-----------------|-------------|
|-----------------|-----------------|-5-----7--5--|
|-7-5-7-5-7-5-7-5-|-7-5-7-5-7-5-5-5-|-3--5--5--3--|
|-0---0---0---0---|-0---0---0---7---|----3--------|


  N.C.
  Gtrs I, II
  PM------------------------------------------------|
  E E E E E E E E   E E E E E E E E   E E E E E E E E   E E E E E E E E
|-----------------|-----------------|-----------------|-----------------|
|-----------------|-----------------|-----------------|-----------------|
|-----------------|-----------------|-----------------|-----------------|
|-----------------|-----------------|-----------------|-------5-7p5-----|
|-7-5-7-5-7-5-7-5-|-7-5-7-5-7-5-5-5-|-7-5-7-5-7-5-5-5-|---5h7-------7p5-|
|-0---0---0---0---|-0---0---0---7---|-0---0---0---7---|-7---------------|


                                      C5 G5 D5 C5
  PM------------------------------|
  E E E E E E E E   E E E E E E E E   Q  Q  Q  Q
|-----------------|-----------------|-------------||
|-----------------|-----------------|-------------||
|-----------------|-----------------|-------------||
|-----------------|-----------------|-5-----7--5--||
|-7-5-7-5-7-5-7-5-|-7-5-7-5-7-5-5-5-|-3--5--5--3--||
|-0---0---0---0---|-0---0---0---7---|----3--------||


        E5                     D5            E5
  PM--|    PM--|      PM--|            PM--|    PM--|
  |-3-|    |-3-|      |-3-|            |-3-|    |-3-|
  E E E Q  E E E Q    E E E Q  Q  Q    E E E Q  E E E Q
|-------------------|----------------|-------------------|
|-------------------|----------------|-------------------|
|-------------------|----------------|-------------------|
|-------9--------9--|-------9--7--7--|-------9--------9--|
|-------7--------7--|-------7--5--5--|-------7--------7--|
|-0-0-0----0-0-0----|-0-0-0----------|-0-0-0----0-0-0----|


           C5 D5         E5                     G5  E5   C5 G5 D5 C5
  PM--|            PM--|    PM--|      PM--|
  |-3-|            |-3-|    |-3-|      |-3-|
  E E E Q  Q  Q    E E E Q  E E E Q    E E E Q   Q  Q    Q  Q  Q  Q
|----------------|-------------------|-----------------|-------------||
|----------------|-------------------|-----------------|-------------||
|----------------|-------------------|-----------------|-------------||
|-------9--5--7--|-------9--------9--|-------9--12--9--|-5-----7--5--||
|-------7--3--5--|-------7--------7--|-------7--10--7--|-3--5--5--3--||
|-0-0-0----------|-0-0-0----0-0-0----|-0-0-0-----------|----3--------||


   Verse
          E5                     D5            E5
    PM--|    PM--|      PM--|            PM--|    PM--|
    |-3-|    |-3-|      |-3-|            |-3-|    |-3-|
    E E E Q  E E E Q    E E E Q  Q  Q    E E E Q  E E E Q
||--------------------|----------------|--------------------|
||o-------------------|----------------|--------------------|
||--------------------|----------------|--------------------|
||--------9--------9--|-------9--7--7--|-------9--------9---|
||o-------7--------7--|-------7--5--5--|-------7--------7---|
||--0-0-0----0-0-0----|-0-0-0----------|-0-0-0----0-0-0-----|


           C5 D5         E5                     G5       C5 G5 D5 C5
  PM--|            PM--|    PM--|      PM--|
  |-3-|            |-3-|    |-3-|      |-3-|
  E E E Q  Q  Q    E E E Q  E E E Q    E E E Q   Q  Q    Q  Q  Q  Q
|----------------|-------------------|-----------------|--------------||
|----------------|-------------------|-----------------|-------------o||
|----------------|-------------------|-----------------|--------------||
|-------9--5--7--|-------9--------9--|-------9--12--9--|-5-----7--5---||
|-------7--3--5--|-------7--------7--|-------7--10--7--|-3--5--5--3--o||
|-0-0-0----------|-0-0-0----0-0-0----|-0-0-0-----------|----3---------||


 Chorus
  E5                           D5
  W          +H     +Q   E E   W          +H     +Q   E E
|----------|-----------------|----------|-----------------|
|----------|-----------------|----------|-----------------|
|-9--------|-(9)----(9)--x-9-|-7--------|-(7)----(7)--x-7-|
|-9--------|-(9)----(9)--x-9-|-7--------|-(7)----(7)--x-7-|
|-7--------|-(7)----(7)--x-7-|-5--------|-(5)----(5)--x-5-|
|----------|-----------------|----------|-----------------|


  C5                           B5
                                                       TP
  W          +H     +Q   E E   W          +H     +Q    Q
|----------|-----------------|----------|-------------------|
|----------|-----------------|----------|-------------------|
|-5--------|-(5)----(5)--x-5-|-4--------|-(4)----(4)--------|
|-5--------|-(5)----(5)--x-5-|-4--------|-(4)----(4)--\--|
|-3--------|-(3)----(3)--x-3-|-2--------|-(2)----(2)--\--|
|----------|-----------------|----------|-------------\--|


  E5                           D5
  W          +H     +Q   E E   W          +H     +Q   E E
|----------|-----------------|----------|-----------------|
|----------|-----------------|----------|-----------------|
|-9--------|-(9)----(9)--x-9-|-7--------|-(7)----(7)--x-7-|
|-9--------|-(9)----(9)--x-9-|-7--------|-(7)----(7)--x-7-|
|-7--------|-(7)----(7)--x-7-|-5--------|-(5)----(5)--x-5-|
|----------|-----------------|----------|-----------------|


  C5                           B5 C5 B5 G5
  W          +H     +Q   E E   Q  Q  Q  Q
|----------|-----------------|-------------||
|----------|-----------------|-------------||
|-5--------|-(5)----(5)--x-5-|-4--5--4-----||
|-5--------|-(5)----(5)--x-5-|-4--5--4--5--||
|-3--------|-(3)----(3)--x-3-|-2--3--2--5--||
|----------|-----------------|----------3--||


   Interlude
    N.C.
    PM------------------------------------------------|
    E E E E E E E E   E E E E E E E E   E E E E E E E E   E E E E E E E E
||------------------|-----------------|-----------------|------------------|
||o-----------------|-----------------|-----------------|------------------|
||------------------|-----------------|-----------------|------------------|
||------------------|-----------------|-----------------|-------5-7p5------|
||o-7-5-7-5-7-5-7-5-|-7-5-7-5-7-5-5-5-|-7-5-7-5-7-5-5-5-|---5h7-------7p5--|
||--0---0---0---0---|-0---0---0---7---|-0---0---0---7---|-7----------------|


                                      C5 G5 D5 C5
  PM------------------------------|
  E E E E E E E E   E E E E E E E E   Q  Q  Q  Q
|-----------------|-----------------|--------------||
|-----------------|-----------------|-------------o||
|-----------------|-----------------|--------------||
|-----------------|-----------------|-5-----7--5---||
|-7-5-7-5-7-5-7-5-|-7-5-7-5-7-5-5-5-|-3--5--5--3--o||
|-0---0---0---0---|-0---0---0---7---|----3---------||


   Verse
          E5                     D5
    PM--|    PM--|      PM--|            PM--|    PM--|
    |-3-|    |-3-|      |-3-|            |-3-|    |-3-|
    E E E Q  E E E Q    E E E Q  Q  Q    E E E Q  E E E Q
||--------------------|----------------|--------------------|
||o-------------------|----------------|--------------------|
||--------------------|----------------|--------------------|
||--------9--------9--|-------9--7--7--|-------9--------9---|
||o-------7--------7--|-------7--5--5--|-------7--------7---|
||--0-0-0----0-0-0----|-0-0-0----------|-0-0-0----0-0-0-----|


           C5 D5         E5                     G5  E5   C5 G5 D5 C5
  PM--|            PM--|    PM--|      PM--|
  |-3-|            |-3-|    |-3-|      |-3-|
  E E E Q  Q  Q    E E E Q  E E E Q    E E E Q   Q  Q    Q  Q  Q  Q
|----------------|-------------------|-----------------|--------------||
|----------------|-------------------|-----------------|-------------o||
|----------------|-------------------|-----------------|--------------||
|-------9--5--7--|-------9--------9--|-------9--12--9--|-5-----7--5---||
|-------7--3--5--|-------7--------7--|-------7--10--7--|-3--5--5--3--o||
|-0-0-0----------|-0-0-0----0-0-0----|-0-0-0-----------|----3---------||


 Chorus
  E5                           D5
  W          +H     +Q   E E   W          +H     +Q   E E
|----------|-----------------|----------|-----------------|
|----------|-----------------|----------|-----------------|
|-9--------|-(9)----(9)--x-9-|-7--------|-(7)----(7)--x-7-|
|-9--------|-(9)----(9)--x-9-|-7--------|-(7)----(7)--x-7-|
|-7--------|-(7)----(7)--x-7-|-5--------|-(5)----(5)--x-5-|
|----------|-----------------|----------|-----------------|


  C5                           B5
                                                       TP
  W          +H     +Q   E E   W          +H     +Q    Q
|----------|-----------------|----------|-------------------|
|----------|-----------------|----------|-------------------|
|-5--------|-(5)----(5)--x-5-|-4--------|-(4)----(4)--------|
|-5--------|-(5)----(5)--x-5-|-4--------|-(4)----(4)--\--|
|-3--------|-(3)----(3)--x-3-|-2--------|-(2)----(2)--\--|
|----------|-----------------|----------|-------------\--|


  E5                           D5
  W          +H     +Q   E E   W          +H     +Q   E E
|----------|-----------------|----------|-----------------|
|----------|-----------------|----------|-----------------|
|-9--------|-(9)----(9)--x-9-|-7--------|-(7)----(7)--x-7-|
|-9--------|-(9)----(9)--x-9-|-7--------|-(7)----(7)--x-7-|
|-7--------|-(7)----(7)--x-7-|-5--------|-(5)----(5)--x-5-|
|----------|-----------------|----------|-----------------|


  C5                           B5 C5 B5 G5
  W          +H     +Q   E E   Q  Q  Q  Q
|----------|-----------------|-------------||
|----------|-----------------|-------------||
|-5--------|-(5)----(5)--x-5-|-4--5--4-----||
|-5--------|-(5)----(5)--x-5-|-4--5--4--5--||
|-3--------|-(3)----(3)--x-3-|-2--3--2--5--||
|----------|-----------------|----------3--||


   Interlude
    N.C.
    PM------------------------------------------------|
    E E E E E E E E   E E E E E E E E   E E E E E E E E   E E E E E E E E
||------------------|-----------------|-----------------|------------------|
||o-----------------|-----------------|-----------------|------------------|
||------------------|-----------------|-----------------|------------------|
||------------------|-----------------|-----------------|-------5-7p5------|
||o-7-5-7-5-7-5-7-5-|-7-5-7-5-7-5-5-5-|-7-5-7-5-7-5-5-5-|---5h7-------7p5--|
||--0---0---0---0---|-0---0---0---7---|-0---0---0---7---|-7----------------|


                                      C5 G5 D5 C5
  PM------------------------------|
  E E E E E E E E   E E E E E E E E   Q  Q  Q  Q
|-----------------|-----------------|--------------||
|-----------------|-----------------|-------------o||
|-----------------|-----------------|--------------||
|-----------------|-----------------|-5-----7--5---||
|-7-5-7-5-7-5-7-5-|-7-5-7-5-7-5-5-5-|-3--5--5--3--o||
|-0---0---0---0---|-0---0---0---7---|----3---------||


  E5           N.C.
               PM----------------------------------------|
                   |-3-|     |-3-|         |-3-|     |-3-|
  W            E E E E E E E E E E  8x E E E E E E E E E E
|----------||-----------------------||---------------------|
|----------||o---------------------o||---------------------|
|----------||-----------------------||---------------------|
|-2--------||-----------------------||---------------------|
|-2--------||o---------------------o||---------------------|
|-0--------||--0-0-0-0-0-0-0-0-0-0--||-0-0-0-0-0-0-0-0-0-0-|


            F5 E5        N.C.                            F5 E5
  PM------|              PM----------------------------|
      |-3-|                  |-3-|     |-3-|       |-3-|
  E E E E E  S E. Q      E E E E E E E E E E   E E E E E  S E. Q
|--------------------||----------------------|--------------------|
|--------------------||o---------------------|--------------------|
|-----------10s9--9--||----------------------|-----------10s9--9--|
|-----------10s9--9--||----------------------|-----------10s9--9--|
|------------8s7--7--||o---------------------|------------8s7--7--|
|-0-0-0-0-0----------||--0-0-0-0-0-0-0-0-0-0-|-0-0-0-0-0----------|


                                  F5
  PM----------------------------|
      |-3-|     |-3-|       |-3-|
  E E E E E E E E E E   E E E E E  H     4x
|---------------------|------------------||
|---------------------|-----------------o||
|---------------------|-----------10-----||
|---------------------|-----------10-----||
|---------------------|------------8----o||
|-0-0-0-0-0-0-0-0-0-0-|-0-0-0-0-0--------||


  Slower Q=147(8=s8)
  N.C.
  |-3-| |-3-| |-3-| |-3-|   |-3-| |-3-| |-3-| |-3-|
  E E E E E E E E E E E E   E E E E E E E E E E E E
|-------------------------|--------------------------||
|-------------------------|--------------------------||
|-------------------------|--------------------------||
|-------------------------|--------------------------||
|-7-5---5-----------------|-7-5---5------------------||
|-----7---7-6-5-3-5-0-3-5-|-----7---7-6-5-3-5-0-3-5--||


    Fast Rock Q=217(8=s8)
    N.C.
    PM------------------------------------------------|
    E E E E E E E E   E E E E E E E E   E E E E E E E E   E E E E E E E E
||------------------|-----------------|-----------------|------------------|
||o-----------------|-----------------|-----------------|------------------|
||------------------|-----------------|-----------------|------------------|
||------------------|-----------------|-----------------|-------5-7p5------|
||o-7-5-7-5-7-5-7-5-|-7-5-7-5-7-5-5-5-|-7-5-7-5-7-5-5-5-|---5h7-------7p5--|
||--0---0---0---0---|-0---0---0---7---|-0---0---0---7---|-7----------------|


                                      C5 G5 D5 C5
  PM------------------------------|
  E E E E E E E E   E E E E E E E E   Q  Q  Q  Q
|-----------------|-----------------|--------------||
|-----------------|-----------------|-------------o||
|-----------------|-----------------|--------------||
|-----------------|-----------------|-5-----7--5---||
|-7-5-7-5-7-5-7-5-|-7-5-7-5-7-5-5-5-|-3--5--5--3--o||
|-0---0---0---0---|-0---0---0---7---|----3---------||


   Verse
          E5                     D5            E5
    PM--|    PM--|      PM--|            PM--|    PM--|
    |-3-|    |-3-|      |-3-|            |-3-|    |-3-|
    E E E Q  E E E Q    E E E Q  Q  Q    E E E Q  E E E Q
||--------------------|----------------|--------------------|
||o-------------------|----------------|--------------------|
||--------------------|----------------|--------------------|
||--------9--------9--|-------9--7--7--|-------9--------9---|
||o-------7--------7--|-------7--5--5--|-------7--------7---|
||--0-0-0----0-0-0----|-0-0-0----------|-0-0-0----0-0-0-----|


           C5 D5         E5                     G5  E5   C5 G5 D5 C5
  PM--|            PM--|    PM--|      PM--|
  |-3-|            |-3-|    |-3-|      |-3-|
  E E E Q  Q  Q    E E E Q  E E E Q    E E E Q   Q  Q    Q  Q  Q  Q
|----------------|-------------------|-----------------|--------------||
|----------------|-------------------|-----------------|-------------o||
|----------------|-------------------|-----------------|--------------||
|-------9--5--7--|-------9--------9--|-------9--12--9--|-5-----7--5---||
|-------7--3--5--|-------7--------7--|-------7--10--7--|-3--5--5--3--o||
|-0-0-0----------|-0-0-0----0-0-0----|-0-0-0-----------|----3---------||


 Chorus
  E5                           D5
  W          +H     +Q   E E   W          +H     +Q   E E
|----------|-----------------|----------|-----------------|
|----------|-----------------|----------|-----------------|
|-9--------|-(9)----(9)--x-9-|-7--------|-(7)----(7)--x-7-|
|-9--------|-(9)----(9)--x-9-|-7--------|-(7)----(7)--x-7-|
|-7--------|-(7)----(7)--x-7-|-5--------|-(5)----(5)--x-5-|
|----------|-----------------|----------|-----------------|


  C5                           B5
                                                       TP
  W          +H     +Q   E E   W          +H     +Q    Q
|----------|-----------------|----------|-------------------|
|----------|-----------------|----------|-------------------|
|-5--------|-(5)----(5)--x-5-|-4--------|-(4)----(4)--------|
|-5--------|-(5)----(5)--x-5-|-4--------|-(4)----(4)--\--|
|-3--------|-(3)----(3)--x-3-|-2--------|-(2)----(2)--\--|
|----------|-----------------|----------|-------------\--|


  E5                           D5
  W          +H     +Q   E E   W          +H     +Q   E E
|----------|-----------------|----------|-----------------|
|----------|-----------------|----------|-----------------|
|-9--------|-(9)----(9)--x-9-|-7--------|-(7)----(7)--x-7-|
|-9--------|-(9)----(9)--x-9-|-7--------|-(7)----(7)--x-7-|
|-7--------|-(7)----(7)--x-7-|-5--------|-(5)----(5)--x-5-|
|----------|-----------------|----------|-----------------|


  C5                           B5 C5 B5 G5
  W          +H     +Q   E E   Q  Q  Q  Q
|----------|-----------------|-------------||
|----------|-----------------|-------------||
|-5--------|-(5)----(5)--x-5-|-4--5--4-----||
|-5--------|-(5)----(5)--x-5-|-4--5--4--5--||
|-3--------|-(3)----(3)--x-3-|-2--3--2--5--||
|----------|-----------------|----------3--||


   Interlude
    N.C.
    PM------------------------------------------------|
    E E E E E E E E   E E E E E E E E   E E E E E E E E   E E E E E E E E
||------------------|-----------------|-----------------|------------------|
||o-----------------|-----------------|-----------------|------------------|
||------------------|-----------------|-----------------|------------------|
||------------------|-----------------|-----------------|-------5-7p5------|
||o-7-5-7-5-7-5-7-5-|-7-5-7-5-7-5-5-5-|-7-5-7-5-7-5-5-5-|---5h7-------7p5--|
||--0---0---0---0---|-0---0---0---7---|-0---0---0---7---|-7----------------|


                                      C5 G5 D5 C5
  PM------------------------------|
  E E E E E E E E   E E E E E E E E   Q  Q  Q  Q
|-----------------|-----------------|--------------||
|-----------------|-----------------|-------------o||
|-----------------|-----------------|--------------||
|-----------------|-----------------|-5-----7--5---||
|-7-5-7-5-7-5-7-5-|-7-5-7-5-7-5-5-5-|-3--5--5--3--o||
|-0---0---0---0---|-0---0---0---7---|----3---------||


                                    F5 E5
    PM----------------------------|
        |-3-|     |-3-|       |-3-|
    E E E E E E E E E E   E E E E E  S E. Q
||----------------------|--------------------|
||o---------------------|--------------------|
||----------------------|-----------10s9--9--|
||----------------------|-----------10s9--9--|
||o---------------------|------------8s7--7--|
||--0-0-0-0-0-0-0-0-0-0-|-0-0-0-0-0----------|


                                  F5
  PM----------------------------|
      |-3-|     |-3-|       |-3-|
  E E E E E E E E E E   E E E E E  H     4x
|---------------------|------------------||
|---------------------|-----------------o||
|---------------------|-----------10-----||
|---------------------|-----------10-----||
|---------------------|------------8----o||
|-0-0-0-0-0-0-0-0-0-0-|-0-0-0-0-0--------||


 Guitar Solo
                                                 F5 E5
  Gtr I
   PM------------------------------------------|
          |-3--|         |-3--|           |-3--|
   E E    E  E E  E E    E  E E    E E    E  E E  S E.    Q
|-------------------------------|------------------------------|
|-------------------------------|------------------------------|
|-------------------------------|----------------10s9-----9----|
|-------------------------------|----------------10s9-----9----|
|-------------------------------|-----------------8s7-----7----|
|--0-0----0--0-0--0-0----0--0-0-|--0-0----0--0-0---------------|
|
| Gtr III
|  |----3----|    |----3----|      |----3----|    |----3-----|
|  Q    Q    Q    Q    Q    Q      Q    Q    Q    Q     Q    Q
|-------------------------------|---------------------------14-|
|-------------------------------|-----------14---------13------|
|--------------------------14---|------13--------12------------|
|-----------14--------13--------|-12---------------------------|
|------13--------12-------------|------------------------------|
|-12----------------------------|------------------------------|


   PM---------------------------------------|
              |--3--|             |--3------|
   E    E     E  E  E  E    E     E  E  E
|-----------------------------------------|
|-----------------------------------------|
|-----------------------------------------|
|-----------------------------------------|
|-----------------------------------------|
|--0----0-----0--0--0--0----0-----0--0--0-|
|
|  |---3---|  |--3--|  |---3---|  |--3--|
|  E  E    E  E  E  E  E  E    E  E  E  E
|-15p12------15h17-12-15p12---------------|
|---------15------------------15h17-12h15-|
|-----------------------------------------|
|-----------------------------------------|
|-----------------------------------------|
|-----------------------------------------|


                      F5
 ------------------|
              |--3--|
   E    E     E  E  E  H
|----------------------------------------|
|----------------------------------------|
|---------------------10-----------------|
|---------------------10-----------------|
|----------------------8-----------------|
|--0----0-----0--0--0--------------------|
|
|  |---3---|  |--3--|  |--3--|  |--3--|
|  E  E    E  E  E  E  E  E  E  E  E  E
|-12h15p==12-15h17-12h15p12----------12--|
|---------------------------15-17p12-----|
|----------------------------------------|
|----------------------------------------|
|----------------------------------------|
|----------------------------------------|


   PM---------------------------------------|
              |--3--|             |--3------|
   E    E     E  E  E  E    E     E  E  E
|-----------------------------------------|
|-----------------------------------------|
|-----------------------------------------|
|-----------------------------------------|
|-----------------------------------------|
|--0----0-----0--0--0--0----0-----0--0--0-|
|
|  |---3---|  |--3--|  |---3---|  |--3--|
|  E  E    E  E  E  E  E  E    E  E  E  E
|-15p12---15h17-15p12---------------------|
|---------------------17p15p==12-17p15p12-|
|-----------------------------------------|
|-----------------------------------------|
|-----------------------------------------|
|-----------------------------------------|


                      F5 E5
 ------------------|
              |--3--|
   E    E     E  E  E  S E.        Q
|------------------------------------------|
|------------------------------------------|
|---------------------10s9---------9-------|
|---------------------10s9---------9-------|
|----------------------8s7---------7-------|
|--0----0-----0--0--0----------------------|
|
|  |---3---|  |--3--|  |---3----|  |--3--|
|  E  E    E  E  E  E  E     E  E  E  E  E
|------------------------------------------|
|-15h17---15p12----------------------------|
|---------------16p15-15p===14p12----12h14-|
|---------------------------------14-------|
|------------------------------------------|
|------------------------------------------|


   PM---------------------------------------|
              |--3--|             |--3------|
   E    E     E  E  E  E    E     E  E  E
|-----------------------------------------|
|-----------------------------------------|
|-----------------------------------------|
|-----------------------------------------|
|-----------------------------------------|
|--0----0-----0--0--0--0----0-----0--0--0-|
|
|  |---3---|  |--3--|  |---3---|  |--3--|
|  E  E    E  E  E  E  E  E    E  E  E  E
|-----------------------------------------|
|---------15p12---------------------------|
|-15h16---------16p15-14p12---14h15-14p12-|
|-----------------------------------------|
|-----------------------------------------|
|-----------------------------------------|


                      F5
 ------------------|
              |--3--|
   E    E     E  E  E  H
|----------------------------------------|
|----------------------------------------|
|---------------------10-----------------|
|---------------------10-----------------|
|----------------------8-----------------|
|--0----0-----0--0--0--------------------|
|
|  |---3---|  |--3--|  |--3--|  |--3--|
|  E  E    E  E  E  E  E  E  E  E  E  E
|----------------------------------------|
|----------------------------------------|
|----12----------------------------------|
|-14------14p13p12-14p13p12--------------|
|---------------------------14p13p12-13--|
|----------------------------------------|


                                                       F5    E5
   PM--------------------------------------------------|
           |--3--|          |--3--|            |--3----|
   E    E  E  E  E  E    E  E  E  E    E    E  E  E  E  S    E.  Q
|-----------------------------------|------------------------------------|
|-----------------------------------|------------------------------------|
|-----------------------------------|------------------10s===9---9-------|
|-----------------------------------|------------------10s===9---9-------|
|-----------------------------------|-------------------8s===7---7-------|
|--0----0--0--0--0--0----0--0--0--0-|--0----0--0--0--0-------------------|
|
|          |--3--|          |--3--|            |--3--|           |--3--|
|  Q       E  E  E  Q       E  E  E    Q       E  E  E  Q        E  E  E
|---------12---------------12-------|---------12----------------12-------|
|------------15p12------------15p12-|------------15p12-------------15p12-|
|-14b16------------14b16------------|-14b16------------14b16-------------|
|-----------------------------------|------------------------------------|
|-----------------------------------|------------------------------------|
|-----------------------------------|------------------------------------|


                                                       F5
   PM--------------------------------------------------|
           |--3--|          |--3--|            |--3----|
   E    E  E  E  E  E    E  E  E  E    E    E  E  E  E  H
|-----------------------------------|------------------------------|
|-----------------------------------|------------------------------|
|-----------------------------------|------------------10----------|
|-----------------------------------|------------------10----------|
|-----------------------------------|-------------------8----------|
|--0----0--0--0--0--0----0--0--0--0-|--0----0--0--0--0-------------|
|
|          |--3--|          |--3--|            |--3--|
|  Q       E  E  E  Q       E  E  E    Q       E  E  E  E  E  E  E
|---------12---------------12-------|---------12-------------------|
|------------15p12------------15p12-|------------15p12-------------|
|-14b16------------14b16------------|-14b16------------15p12-14p12-|
|-----------------------------------|------------------------------|
|-----------------------------------|------------------------------|
|-----------------------------------|------------------------------|


   PM---------------------------------------|
              |--3--|             |--3------|
   E    E     E  E  E  E    E     E  E  E
|-----------------------------------------|
|-----------------------------------------|
|-----------------------------------------|
|-----------------------------------------|
|-----------------------------------------|
|--0----0-----0--0--0--0----0-----0--0--0-|
|
|  |---3---|  |--3--|  |---3---|  |--3--|
|  E  E    E  E  E  E  E  E    E  E  E  E
|-----------------------------------------|
|---------------------12------------------|
|----12h==14-12h14-15----12h==14-15p14p12-|
|-14--------------------------------------|
|-----------------------------------------|
|-----------------------------------------|


                      F5 E5
 ------------------|
              |--3--|
   E    E     E  E  E  S E.        Q
|----------------------------------------|
|----------------------------------------|
|---------------------10s9---------9-----|
|---------------------10s9---------9-----|
|----------------------8s7---------7-----|
|--0----0-----0--0--0--------------------|
|
|  |---3---|  |--3--|  |---3----|
|  E  E    E  E  E  E  E     E  E  E  E
|----------------------------------------|
|----------------------------------------|
|----------------------------------------|
|-14p12------12h14-14-14p===12----12-----|
|---------14-------------------14----14--|
|----------------------------------------|


                                                         F5
   PM----------------------------------------------------|
              |--3--|        |-3-|               |--3----|
   E    E     E  E  E  E  E  E E E    E    E     E  E  E  H
|----------------------------------|---------------------------------------|
|----------------------------------|---------------------------------------|
|----------------------------------|---------------------10----------------|
|----------------------------------|---------------------10----------------|
|----------------------------------|----------------------8----------------|
|--0----0-----0--0--0--0--0--0-0-0-|--0----0-----0--0--0-------------------|
|
|                         TP                  TP TP TP TP       TP TP TP TP
|  |---3---|  |--3--|                 |---3---|  |--3--|  |--3--|  |--3--|
|  E  E    E  E  E  E  E  Q.          E  E    E  E  E  E  E  E  E  E  E  E
|----------------------------------|-24p22---19-19-19-19-24p22-19-19-19-19-|
|----------------------------------|---------------------------------------|
|----------------------------------|---------------------------------------|
|----------------------------------|---------------------------------------|
|-13p12---13h14p13-12--------------|---------------------------------------|
|---------------------15-12\-------|---------------------------------------|


   PM----------------------------------------|
              |--3--|             |--3-------|
   E    E     E  E  E  E    E     E    E E
|------------------------------------------|
|------------------------------------------|
|------------------------------------------|
|------------------------------------------|
|------------------------------------------|
|--0----0-----0--0--0--0----0-----0----0-0-|
|
|          TP TP TP TP         TP
|  |---3---|  |--3--|  |---3---|
|  E  E    E  E  E  E  E  E    E  Q
|-24p22---19-19-19-19-24p22---19-----------|
|--------------------------------22b24-----|
|------------------------------------------|
|------------------------------------------|
|------------------------------------------|
|------------------------------------------|


                       F5 E5
 --------------------|
              |--3---|
   E    E     E    E E  S E.        Q
|-------------------------------------------|
|-------------------------------------------|
|----------------------10s9---------9-------|
|----------------------10s9---------9-------|
|-----------------------8s7---------7-------|
|--0----0-----0----0-0----------------------|
|
|                             TP
|  |---3---|            |---3----|  |--3--|
|  E  E    E  Q         E     E  E  E  E  E
|-19-22---24-----------19----22-24p22-19-19-|
|------------22b24--------------------------|
|-------------------------------------------|
|-------------------------------------------|
|-------------------------------------------|
|-------------------------------------------|


                                                          F5
   PM---------------------------------------------------|
              |--3---|        |--3--|            |--3---|
   E    E     E    E E  E  E  E  E  E    E    E  E E    E  H
|-------------------------------------|-----------------------------------|
|-------------------------------------|-----------------------------------|
|-------------------------------------|-------------------10--------------|
|-------------------------------------|-------------------10--------------|
|-------------------------------------|--------------------8--------------|
|--0----0-----0----0-0--0--0--0--0--0-|--0----0--0-0----0-----------------|
|
|  |---3---|                  |--3--|                      |--3--|
|  E  E    E  Q         E  E  E  E  E    Q       E    E    E  E  E  Q
|-24p22---19-----------19h22-24p22-19-|---------19h==22---24p22-19--------|
|------------22b24--------------------|-22b24----------------------22b24--|
|-------------------------------------|-----------------------------------|
|-------------------------------------|-----------------------------------|
|-------------------------------------|-----------------------------------|
|-------------------------------------|-----------------------------------|


                                                            F5 E5
   PM-------------------------------------------------------|
              |--3---|          |--3---|            |--3----|
   E    E     E E    E  E    E  E E    E    E    E  E  E  E  S E.        Q
|----------------------------------------|-----------------------------------------|
|----------------------------------------|-----------------------------------------|
|----------------------------------------|------------------10s9---------9---------|
|----------------------------------------|------------------10s9---------9---------|
|----------------------------------------|-------------------8s7---------7---------|
|--0----0-----0-0----0--0----0--0-0----0-|--0----0--0--0--0------------------------|
|
|  |---3---|                                        |--3--|  |---3----|  |--3--|
|  E  E    E  E    E    Q       E    E      Q       E  E  E  E     E  E  E  E  E
|-19-19---24p22---19-----------19h==22---|---------15p12----12h===15p12-15p12-12---|
|----------------------22b24-------------|-17b19---------12------------------------|
|----------------------------------------|-----------------------------------------|
|----------------------------------------|-----------------------------------------|
|----------------------------------------|-----------------------------------------|
|----------------------------------------|-----------------------------------------|


   PM---------------------------------------|
              |--3--|             |--3------|
   E    E     E  E  E  E    E     E  E  E
|-----------------------------------------|
|-----------------------------------------|
|-----------------------------------------|
|-----------------------------------------|
|-----------------------------------------|
|--0----0-----0--0--0--0----0-----0--0--0-|
|
|  |---3---|  |--3--|  |---3---|  |--3--|
|  E  E    E  E  E  E  E  E    E  E  E  E
|-15p12---12-12h15p12-17p12------12h17p12-|
|-----------------------------15----------|
|-----------------------------------------|
|-----------------------------------------|
|-----------------------------------------|
|-----------------------------------------|


                      F5
 ------------------|
              |--3--|
   E    E     E  E  E  H
|----------------------------------------|
|----------------------------------------|
|---------------------10-----------------|
|---------------------10-----------------|
|----------------------8-----------------|
|--0----0-----0--0--0--------------------|
|
|  |---3---|  |--3--|  |--3--|  |--3--|
|  E  E    E  E  E  E  E  E  E  E  E  E
|-15p12----------------------------------|
|---------15p12----15p12-15p12-------15--|
|---------------15-------------15p14-----|
|----------------------------------------|
|----------------------------------------|
|----------------------------------------|


   PM---------------------------------------|
              |--3--|             |--3------|
   E    E     E  E  E  E    E     E  E  E
|-----------------------------------------|
|-----------------------------------------|
|-----------------------------------------|
|-----------------------------------------|
|-----------------------------------------|
|--0----0-----0--0--0--0----0-----0--0--0-|
|
|  |---3---|  |--3--|  |---3---|  |--3--|
|  E  E    E  E  E  E  E  E    E  E  E  E
|-----------------------------------------|
|-12h15p==12----12h15p12-17p==12----12-17p|
|------------15------------------15-------|
|-----------------------------------------|
|-----------------------------------------|
|-----------------------------------------|


                      F5 E5
 ------------------|
              |--3--|
   E    E     E  E  E  S E.        Q
|------------------------------------------|
|------------------------------------------|
|---------------------10s9---------9-------|
|---------------------10s9---------9-------|
|----------------------8s7---------7-------|
|--0----0-----0--0--0----------------------|
|
|  |---3---|  |--3--|  |---3----|  |--3--|
|  E  E    E  E  E  E  E     E  E  E  E  E
|------------------------------------------|
|-12------12h15p12-17p12-------12-17p12-15-|
|----15---------------------15-------------|
|------------------------------------------|
|------------------------------------------|
|------------------------------------------|


   PM---------------------------------------|
              |--3--|             |--3------|
   E    E     E  E  E  E    E     E  E  E
|-----------------------------------------|
|-----------------------------------------|
|-----------------------------------------|
|-----------------------------------------|
|-----------------------------------------|
|--0----0-----0--0--0--0----0-----0--0--0-|
|
|  |---3---|  |--3--|  |---3---|  |--3--|
|  E  E    E  E  E  E  E  E    E  E  E  E
|---------------------12-12---15p12-15p12-|
|-12------15p12-12h15---------------------|
|----15-----------------------------------|
|-----------------------------------------|
|-----------------------------------------|
|-----------------------------------------|


                      F5
 ------------------|
              |--3--|
   E    E     E  E  E  H
|----------------------------------------|
|----------------------------------------|
|---------------------10-----------------|
|---------------------10-----------------|
|----------------------8-----------------|
|--0----0-----0--0--0--------------------|
|
|  |---3---|  |--3--|  |--3--|  |--3--|
|  E  E    E  E  E  E  E  E  E  E  E  E
|-17p15---12h18-------13h15-17h18-17p15--|
|---------------15s17--------------------|
|----------------------------------------|
|----------------------------------------|
|----------------------------------------|
|----------------------------------------|


   PM----------------------------------------|
              |--3--|             |--3-------|
   E    E     E  E  E  E    E     E    E E
|------------------------------------------|
|------------------------------------------|
|------------------------------------------|
|------------------------------------------|
|------------------------------------------|
|--0----0-----0--0--0--0----0-----0----0-0-|
|
|  |---3---|  |--3--|  |---3---|
|  E  E    E  E  E  E  E  E    E  Q
|-15-17---15----17-18-20-18---17-----------|
|------------15------------------20b22-----|
|------------------------------------------|
|------------------------------------------|
|------------------------------------------|
|------------------------------------------|


                     F5 E5
 -----------------|
             |--3--|
  E    E     E  E  E  S E.        Q
|---------------------------------------|
|---------------------------------------|
|--------------------10s9---------9-----|
|--------------------10s9---------9-----|
|---------------------8s7---------7-----|
|-0----0-----0--0--0--------------------|
|
| |---3---|  |--3--|  |---3----|
| E  E    E  E  E  E  E     E  E  E  E
|-x------------20h22-20p===18----18h22--|
|---17---20p18----------------20--------|
|---------------------------------------|
|---------------------------------------|
|---------------------------------------|
|---------------------------------------|


   PM------------------------------------|
           |--3--|             |--3------|
   E    E  E  E  E  E    E     E  E  E
|--------------------------------------|
|--------------------------------------|
|--------------------------------------|
|--------------------------------------|
|--------------------------------------|
|--0----0--0--0--0--0----0-----0--0--0-|
|
|          |--3--|  |---3---|  |--3--|
|  Q       E  E  E  E  E    E  E  E  E
|-22b24---20p18p17-17p15p==12----------|
|-----------------------------17p15p12-|
|--------------------------------------|
|--------------------------------------|
|--------------------------------------|
|--------------------------------------|


                      F5
 ------------------|
              |--3--|
   E    E     E  E  E  H
|------------------------------------------||
|------------------------------------------||
|---------------------10-------------------||
|---------------------10-------------------||
|----------------------8-------------------||
|--0----0-----0--0--0----------------------||
|
|  |---3---|  |--3--|  |--3--|
|  E  E    E  E  E  E  E  E  E  E     +E
|-17p15p==12-------------------------------||
|------------17p15p12----------16b18r(16)\-||
|---------------------15p14p12-------------||
|------------------------------------------||
|------------------------------------------||
|------------------------------------------||


  N.C.
  Gtrs I, II
  PM------------------------------------------------|
  E E E E E E E E   E E E E E E E E   E E E E E E E E   E E E E E E E E
|-----------------|-----------------|-----------------|-----------------|
|-----------------|-----------------|-----------------|-----------------|
|-----------------|-----------------|-----------------|-----------------|
|-----------------|-----------------|-----------------|-------5-7p5-----|
|-7-5-7-5-7-5-7-5-|-7-5-7-5-7-5-5-5-|-7-5-7-5-7-5-7-5-|---5h7-------7p5-|
|-0---0---0---0---|-0---0---0---7---|-0---0---0---0---|-7---------------|


                                      C5 G5 D5 C5   E5
  PM------------------------------|
  E E E E E E E E   E E E E E E E E   Q  Q  Q  Q    q  Q  H
|-----------------|-----------------|-------------|------------*|
|-----------------|-----------------|-------------|------------*|
|-----------------|-----------------|-------------|------------*|
|-----------------|-----------------|-5-----7--5--|------------*|
|-7-5-7-5-7-5-7-5-|-7-5-7-5-7-5-5-5-|-3--5--5--3--|-2----------*|
|-0---0---0---0---|-0---0---0---7---|----3--------|-0----------*|
comments
We did not receive enough feedback on this tab! Please rate:
print report bad tab
1 2 3 4 5
6 comments total. Showing first comments.
-2 reply
Rocknny wrote on May 4 2010, 04:26 pm

What's the point of naming this tab "The Mechanix", when it was released as "The Four Horsemen"? Everything but the lyrics, are exactly the same...

-1 reply
andrew10134 wrote on May 4 2010, 06:15 pm

what about the knew bridge and solo dumb ass.
you must be ****ing retarted

0 reply
andrew10134 wrote on May 4 2010, 06:16 pm

and i was talking about the demo with dave mustaine and ron mcgovney.

I want to post or [tab]
guest
You may want to rate the tab now too:
select rating
Please do not post tabs as comments. Select "correction" instead!