Oops, an error
Loading. Please wait.

The Memory Remains Bass Tab

ver2
ver2

Whole song

Interactive

More versions @911Tabs.com
2,820 views 3 this week
no commentswrite comment
1 2 3 4 5
please rate
Autoscroll
+/-
esc
set tempo
stop
Contributor
Difficulty
intermediate
Hey! There's an official Ultimate Guitar app which is ideal
for learning songs when you're away from computer. Get the app
WARNING: You are trying to view
                                    content from Ultimate-Guitar.com
                                    in an unauthorized application,
                                    which is prohibited.

                                    Please use an official Ultimate
                                    Guitar Tabs application for iPhone,
                                    iPad or Android to access legitimate
                                    chords, guitar, bass, and drum tabs
                                    from Ultimate-Guitar.com database.

                                    Type "ultimate guitar tabs" in Apple
                                    App Store's or Android Market's
                                    search to find the application.
METALLICA
The memory remains



                                                             
F#||------------------|------------------|------------------|
C#||------------------|------------------|------------------|
G#||------------------|------------------|------------------|
D#||------------------|------------------|------------------|


                                                                 
-------------------|---------------------|----------------------|
-------------------|---------------------|----------------------|
-------------------|------------7--------|-----------------7----|
--1----------------|--0----0----0--------|--0------0--3/--------|


                                                                     
---------------------|------------------------|---------------------|
---------------------|------------------------|---------------------|
------------7--------|------------------3/5---|------------7--------|
--0----0----0--------|--0------0--3--0--------|--0----0----0--------|


                                                                      
-----------------------|------------------------|--------------------|
-----------------------|------------------------|--------------------|
------------------7----|-------------2----2--5--|--7--------------7--|
--0------0--3--0-------|--3----3--3-------------|--0-----------------|


                                                                         
-------------------------|---------------------|------------------------|
-------------------------|---------------------|------------------------|
----7--5/-4/-5--7--5-----|------------7--------|------------------5/7---|
----------------------7--|--0----0----0--------|--0------0--3--0--------|


                                                                     
---------------------|------------------------|---------------------|
---------------------|------------------------|---------------------|
------------7--------|------------------3/5---|------------7--------|
--0----0----0--------|--0------0--3--0--------|--0----0----0--------|


                                                                        
------------------------|------------------------|---------------------|
------------------------|------------------------|---------------------|
------------------5/7---|-------------2----2--2--|------------7--------|
--0------0--3--0--------|--3----3--3-------------|--0----0----0--------|


                                                                          
------------------------|-----------------------|------------------------|
------------------------|-----------------------|------------------------|
------------------5/7---|--------5/7------------|------------------5h-7--|
--0------0--3--0--------|--0--0--------0--------|--0------0--5h-7--------|


                                                                            
-------------------------|------------------------|------------------------|
-------------------------|------------------------|------------------------|
--------------5/7--------|------------------5/7---|-------------2----2--5--|
--0--0--0--0--------0----|--0------0--3--0--------|--3----3--3-------------|


                                                                         
-------------------|--------------------------|-------------------------|
-------------------|--------------------------|-------------------------|
--7----------------|--5--7--5/-4/-5--7--5-----|--5--7--------7----------|
--0----------------|-----------------------7--|--0--0--0--0--0----0--0--|


                                                                             
-------------------------|-------------------------|------------------------|
-------------------------|-------------------------|------------------------|
--5--7--------7----------|--5--7--------7----------|--5----------5----------|
--0--0--0--0--0----0--0--|--0--0--0--0--0----0--0--|-----3----3-----3----3--|


                                                                              
-------------------------|-------------------------|-------------------------|
-------------------------|-------------------------|-------------------------|
--5--7--------7----------|--5--7--------7----------|--5--7--------7----------|
--0--0--0--0--0----0--0--|--0--0--0--0--0----0--0--|--0--0--0--0--0----0--0--|


                                                                   
-------------------|---------------------|------------------------|
-------------------|---------------------|------------------------|
-------------------|------------7--------|------------------5/7---|
--1----------------|--0----0----0--------|--0------0--3--0--------|


                                                                       
---------------------|--------------------------|---------------------|
---------------------|--------------------------|---------------------|
------------7--------|-------------------5-5-5--|------------7--------|
--0----0----0--------|--0--0----0--3--0---------|--0----0----0--------|


                                                                      
------------------------|-----------------------|--------------------|
------------------------|-----------------------|--------------------|
------------------5/7---|------------2----2--5--|--7--------------7--|
--0------0--3--0--------|--3----3---------------|--0-----------------|


                                                                         
-------------------------|---------------------|------------------------|
-------------------------|---------------------|------------------------|
----7--5/-4/-5/-4/-5--7--|------------7--------|------------------5/7---|
-------------------------|--0----0----0--------|--0------0--3--0--------|


                                                                     
---------------------|------------------------|---------------------|
---------------------|------------------------|---------------------|
------------7--------|------------------3/5---|------------7--------|
--0----0----0--------|--0------0--3--0--------|--0----0----0--------|


                                                                        
------------------------|------------------------|---------------------|
------------------------|------------------------|---------------------|
------------------5/7---|-------------2----2--2--|------------7--------|
--0------0--3--0--------|--3----3--3-------------|--0----0----0--------|


                                                                          
------------------------|-----------------------|------------------------|
------------------------|-----------------------|------------------------|
------------------5/7---|--------5/7------------|------------------5h-7--|
--0------0--3--0--------|--0--0--------0--------|--0------0--5h-7--------|


                                                                            
-------------------------|------------------------|------------------------|
-------------------------|------------------------|------------------------|
--------------5/7--------|------------------5/7---|-------------2----2--5--|
--0--0--0--0--------0----|--0------0--3--0--------|--3----3--3-------------|


                                                                         
-------------------|--------------------------|-------------------------|
-------------------|--------------------------|-------------------------|
--7----------------|--5--7--5/-4/-5-----------|--5--7--------7----------|
--0----------------|-----------------7--5--3--|--0--0--0--0--0----0--0--|


                                                                             
-------------------------|-------------------------|------------------------|
-------------------------|-------------------------|------------------------|
--5--7--------7----------|--5--7--------7----------|--5----------5----------|
--0--0--0--0--0----0--0--|--0--0--0--0--0----0--0--|-----3----3-----3----3--|


                                                                             
-------------------------|-------------------------|------------------------|
-------------------------|-------------------------|------------------------|
--5--7--------7----------|--5--7--------7----------|--5--7--------7----5/---|
--0--0--0--0--0----0--0--|--0--0--0--0--0----0--0--|--0--0--0--0--0---------|


                                                            
-------------10----------|-------------------12--12--------|
-------10----------10----|-----------12--12----------12/---|
--8----------------------|--8/10-10------------------------|
-------------------------|---------------------------------|


                                                                       
---------------------|------------------------|-----------------------|
---------------------|------------------------|------------5----------|
------------7/-------|--2----2----2----2h3p2--|-----------------2h-3--|
--0----0----0--------|------------------------|--3----3---------------|


                                                                        
----------------------|-----------------------|------------------------|
-------7---------4----|-----------------------|------------------------|
--5---------2---------|------------------7/---|--2----2----2----2h3p2--|
----------------------|--0--0----0--0---------|------------------------|


                                                                     
-----------------------|----------------------|---------------------|
------------5----------|-------7---------4----|---------------------|
-----------------2h-3--|--5---------2---------|------------7/-------|
--3----3---------------|----------------------|--0----0----0--------|


                                                                        
------------------------|-----------------------|----------------------|
------------------------|------------5----------|-------7---------4----|
--2----2----2----2h3p2--|-----------------2h-3--|--5---------2---------|
------------------------|--3----3---------------|----------------------|


                                                                        
---------------------|------------------------|------------------------|
---------------------|------------------------|------------5-----------|
------------7/-------|--2----2----2----2h3p2--|-----------------2h3p2--|
--0----0----0--------|------------------------|--3----3----------------|


                                                                           
----------------------|-------------------------|-------------------------|
-------7---------4----|-------------------------|-------------------------|
--5---------2---------|--5--7--------7----------|--5--7--------7----------|
----------------------|--0--0--0--0--0----0--0--|--0--0--0--0--0----0--0--|


                                                                             
-------------------------|------------------------|-------------------------|
-------------------------|------------------------|-------------------------|
--5--7--------7----------|--5----------5----------|--5--7--------7----------|
--0--0--0--0--0----0--0--|-----3----3-----3----3--|--0--0--0--0--0----0--0--|


                                                                             
-------------------------|-------------------------|------------------------|
-------------------------|-------------------------|------------------------|
--5--7--------7----------|--5--7--------7----------|--5----------5----------|
--0--0--0--0--0----0--0--|--0--0--0--0--0----0--0--|-----3----3-----3----3--|


                                                      
--------------------------|--------------------------|
--------------------------|--------------------------|
--5-----------7--5--5--5--|--5-----------7--5--5--5--|
--0--7--5--0--------------|--0--7--5--0--------------|


                                                                              
--------------------------|------------------------|-------------------------|
--------------------------|------------------------|-------------------------|
--5-----------7--5--5--5--|--5----------5----------|--5--7--------7----5--5--|
--0--7--5--0--------------|-----3----3-----3----3--|--0--0--0--0--0----------|


                                                                          
--------------------------|--------------------------|-------------------|
--------------------------|--------------------------|-------------------|
--5--7--------7--7--7--5--|--5--7--------7--5--------|-------------------|
--0--0--0--0--0-----------|--0--0--0--0--------7--0--|--1----------------|


                                                                 
------------------|------------------|--------------------------|
------------------|------------------|--------------------------|
------------------|------------------|--------------------------|
------------------|------------------|--3--3--3--3--3--3--3--3--|


                                                      
--------------------------|--------------------------|
--------------------------|--------------------------|
--------------------------|--------------------------|
--3--3--3--3--3--3--3--3--|--3--3--3--3--3--3--3--3--|


                                                                           
--------------------------|----------------------|------------------------|
--------------------------|----------------------|------------------------|
--------------------------|------------7---------|------------------5/7---|
--3--3--3--3--3--3--3--3--|--0----0----0----0----|--0------0--3--0--------|


                                                                        
---------------------|------------------------|------------------------|
---------------------|------------------------|------------------------|
------------7--------|------------------3/5---|-------------7----------|
--0----0----0--------|--0------0--3--0--------|--0----0--0--0----0--0--|


                                                                     
-------------------------|-----------------------|------------------|
-------------------------|-----------------------|------------------|
-------------------5/7---|------------7----------|------------------|
--0----0--0--3--0--------|--0----0----0----1--1--|------------------|


                                                                        
---------------------|------------------------|------------------------|
---------------------|------------------------|------------------------|
------------7--------|------------------5/7---|-------------7----------|
--0----0----0--------|--0------0--3--0--------|--0--0--0----0----0--0--|


                                                                          
------------------------|-----------------------|------------------------|
--7--5------------------|-----------------------|------------------------|
--7--5--------5----7----|------------7----------|-------------------7----|
----------5h7------0----|--0----0----0----0--0--|--0----0--0--3--0--0----|


                                                          
------------------9-----|----------------10--10----------|
---------------------9--|--------10--10----------10--10--|
------------5/7---------|--7/8---------------------------|
--0----0------0---------|--------------------------------|


                                                                            
---------------12----------|---------------------|-------------------------|
---------12----------12/---|---------------------|-------------------------|
--9/10---------------------|------------7/-------|--2----2--2--2----2h3p2--|
---------------------------|--0----0----0--------|-------------------------|


                                                                         
-----------------------|----------------------|-------------------------|
------------5----------|-------7---------4----|-------------------------|
-----------------2h-3--|--5---------2---------|--------------7-----7/---|
--3----3---------------|----------------------|--0--0--7--0-----0-------|


                                                                          
--------------------------|-----------------------|----------------------|
--------------------------|------------5----------|-------7---------4----|
--2--2--2--2--2----2h3p2--|-----------------2h-3--|--5---------2---------|
--------------------------|--3----3---------------|----------------------|


                                                                        
---------------------|-------------------------|-----------------------|
---------------------|-------------------------|------------5----------|
------------7/-------|--2----2--2--2----2h3p2--|-----------------2h-3--|
--0----0----0--------|-------------------------|--3----3---------------|


                                                                         
----------------------|---------------------|---------------------------|
-------7---------4----|---------------------|---------------------------|
--5---------2---------|------------7/-------|--2--2--2--2--2--2--2h3p2--|
----------------------|--0----0----0--------|---------------------------|


                                                                      
--------------------------|----------------------|-------------------|
--------------5-----------|-------7---------4----|--9----------------|
-------------------2h3p2--|--5---------2---------|--7----------------|
--3--3--3--3--------------|----------------------|-------------------|


                                                                            

Tabbed by Ed_Hunter

comments
We did not receive enough feedback on this tab! Please rate:
print report bad tab
1 2 3 4 5
I want to post or [tab]
guest
You may want to rate the tab now too:
select rating
Please do not post tabs as comments. Select "correction" instead!