Oops, an error
Loading. Please wait.

The Memory Remains Tab

ver4
ver4

Intro

Whole song

More versions @911Tabs.com
9,423 views 27 this week
4 commentsread comments
1 2 3 4 5
accurate
x 8
Autoscroll
+/-
esc
set tempo
stop
Contributor
WARNING: You are trying to view
                                    content from Ultimate-Guitar.com
                                    in an unauthorized application,
                                    which is prohibited.

                                    Please use an official Ultimate
                                    Guitar Tabs application for iPhone,
                                    iPad or Android to access legitimate
                                    chords, guitar, bass, and drum tabs
                                    from Ultimate-Guitar.com database.

                                    Type "ultimate guitar tabs" in Apple
                                    App Store's or Android Market's
                                    search to find the application.
Band- Metallica
Song- The Memory Remains

tr I (Eb Ab Db Gb Bb Eb) - 'Jame Hetfield - Rhythm w/dist'
Gtr II (Eb Ab Db Gb Bb Eb) - 'Kirk Hammett - Rhythm w/dist'
Gtr III (Eb Ab Db Gb Bb Eb) - 'Kirk Hammett - Lead w/dist'
Gtr IV (Eb Ab Db Gb Bb Eb) - 'dist electric pitched shifted octave high'
Gtr V (Eb Ab Db Gb Bb Eb) - 'Kirk Hammett - Lead w/dist'

Intro
  Q=148
 4/4
  Gtr I
      PM|              PM|              PM|
  E E E E Q.   E   E E E E Q.   E   E E E E Q  E E
|----------------|----------------|----------------|
|----------------|----------------|----------------|
|-7-9-----9----9-|-7-9-----9----9-|-7-9-----9--9---|
|-7-9-----9----9-|-7-9-----9----9-|-7-9-----9--9---|
|-5-7-----7----7-|-5-7-----7----7-|-5-7-----7--7---|
|-----0-0--------|-----0-0--------|-----0-0------0-|


  F5
  Gtr II
   E E Q  H       W                    W
   |
   /

  Gtr I        Gtrs I, II
                            ~~~              ~~
                                                       |----3-----|
   E E Q  H       Q  Q   a  Q.    E    E  E  Q   E  E  E     +E   E
|--------------||-------------------|-------------------------------|
|--------------||-------------------|-------------------------------|
|-10-----------||-------------------|-----------12-14-14b16r(14)p12-|
|-10-----------||-------12h14----14-|-12h14-14---5--7--7b9r==(7)p=5-|
|--8-----------||--------5h=7-----7-|--5h=7--7----------------------|
|--------------||-0--0--------------|-------------------------------|
                  Q  Q   a  Q.    E    E  E  Q   E  E  E     +E   E
                                                       |----3-----|
                 |-Riff A (both Gtrs)

   ~~        ~~~              ~~
                                        |----3-----|
   Q  Q   a  Q.    E    E  E  Q   E  E  E     +E   E
|--------------------|-------------------------------|
|--------------------|-------------------------------|
|--------------------|-----------12-14-14b16r(14)p12-|
|-14-----12h14----14-|-12h14-14---5--7--7b9r==(7)p=5-|
|--7------5h=7-----7-|--5h=7--7----------------------|
|-----0--------------|-------------------------------|
   Q  Q   a  Q.    E    E  E  Q   E  E  E     +E   E
                                        |----3-----|


   ~~        ~~~              ~~
                                        |----3-----|
   Q  Q   a  Q.    E    E  E  Q   E  E  E     +E   E
|--------------------|-------------------------------|
|--------------------|-------------------------------|
|--------------------|-----------12-14-14b16r(14)p12-|
|-14-----12h14----14-|-12h14-14---5--7--7b9r==(7)p=5-|
|--7------5h=7-----7-|--5h=7--7----------------------|
|-----0--------------|-------------------------------|
   Q  Q   a  Q.    E    E  E  Q   E  E  E     +E   E
                                        |----3-----|


  Gtr I
  Q  Q  Q  Q    W          +E   E   E   E   E  E  E   E
|-------------|----------|------------------------------||
|-------------|----------|------------------------------||
|-------------|----------|------------------------------||
|----5-----5--|----------|------------------------------||
|-------2-----|-2--------|-(2)--------------------------||
|-3-----------|-0--------|-(0)-<3>-<3>-<2>-<2><2>-3s=12-||
|                                            end Riff A-|
| Gtr II
| Q  Q  Q  Q    W          +H               Q     Q
|-------------|----------|------------------------------||
|-------------|----------|------------------------------||
|-------------|----------|------------------------------||
|----5-----5--|----------|------------------------------||
|-------2-----|-2--------|-(2)--------------xs====x\----||
|-3-----------|-0--------|-(0)--------------xs====x\----||


 Verse 1
  Gtrs I, II
            ~~~              ~~                        ~~        ~~~
                                       |----3-----|
  Q  Q   a  Q.    E    E  E  Q   E  E  E     +E   E    Q  Q   a  Q.    E
|-------------------|-------------------------------|--------------------|
|-------------------|-------------------------------|--------------------|
|-------------------|-----------12-14-14b16r(14)p12-|--------------------|
|-------12h14----14-|-12h14-14---5--7--7b9r==(7)p=5-|-14-----12h14----14-|
|--------5h=7-----7-|--5h=7--7----------------------|--7------5h=7-----7-|
|-0--0--------------|-------------------------------|-----0--------------|


         ~~
                   |----3-----|
   E  E  Q   E  E  E     +E   E
|-------------------------------|
|-------------------------------|
|-----------12-14-14b16r(14)p12-|
|-12h14-14---5--7--7b9r==(7)p=5-|
|--5h=7--7----------------------|
|-------------------------------|


                       ~~~              ~~
                                                  |----3-----|
   a      +Q    Q   a  Q.    E    E  E  Q   E  E  E     +E   E
|------------------------------|-------------------------------|
|------------------------------|-------------------------------|
|-14b16==(14)r-----------------|-----------12-14-14b16r(14)p12-|
|--7b9====(7)r-----12h14----14-|-12h14-14---5--7--7b9r==(7)p=5-|
|-------------------5h=7-----7-|--5h=7--7----------------------|
|---------------0--------------|-------------------------------|


                          ~~~              ~~
                                                     |----3-----|
  Q  Q  Q  Q    Q  Q   a  Q.    E    E  E  Q   E  E  E     +E   E
|-------------|-------------------|-------------------------------|
|-------------|-------------------|-------------------------------|
|-------------|-------------------|-----------12-14-14b16r(14)p12-|
|----5-----5--|-------12h14----14-|-12h14-14---5--7--7b9r==(7)p=5-|
|-------2-----|--------5h=7-----7-|--5h=7--7----------------------|
|-3-----------|-0--0--------------|-------------------------------|


                       ~~~              ~~                          ~~~
   a      +Q    Q   a  Q.    E    E  E  Q   E  E  E  E    Q  Q   a  Q.    E
|------------------------------|-----------------------|--------------------|
|------------------------------|-----------------------|--------------------|
|-14b16==(14)r-----------------|--------------------12-|--------------------|
|--7b9====(7)r-----12h14----14-|-12h14-14--------12--5-|-14-----12h14----14-|
|-------------------5h=7-----7-|--5h=7--7--12h14--5----|--7------5h=7-----7-|
|---------------0--------------|------------5h=7-------|-----0--------------|


  Gtr I                                       G
         ~~
                   |----3-----|
   E  E  Q   E  E  E     +E   E   Q  Q  Q  Q
|-------------------------------|-------------|
|-------------------------------|-------------|
|-------------------------------|-------------|
|------------5--7--7b9r==(7)p=5-|----5-----5--|
|--5h=7--7----------------------|-------2-----|
|-------------------------------|-3-----------|
|
| Gtr II
|        ~~
|                  |----3-----|
|  E  E  Q   E  E  E     +E   E   Q  Q  Q  Q
|-------------------------------|-------------|
|-------------------------------|-------------|
|-----------12-14-14b16r(14)p12-|-------------|
|-12h14-14----------------------|----5-----5--|
|-------------------------------|-------2-----|
|-------------------------------|-3-----------|


 tr II
  W          +E   E   E   E   E  E  E   E
|----------|-------------------------------||
|----------|-------------------------------||
|----------|-------------------------------||
|----------|-------------------------------||
|-2--------|-(2)---------------------------||
|-0--------|-(0)-<3>-<3>-<2>-<2><2>-3s=12--||
|
| W          +H               Q     Q
|----------|-------------------------------||
|----------|-------------------------------||
|----------|-------------------------------||
|----------|-------------------------------||
|-2--------|-(2)--------------xs====x\-----||
|-0--------|-(0)--------------xs====x\-----||


 Chorus
  Gtrs I, II
      PM|              PM|              PM|
  E E E E Q  E E   E E E E Q.   E   E E E E Q.   E
|----------------|----------------|----------------|
|----------------|----------------|----------------|
|-7-9-----9--9-9-|-7-9-----9----9-|-7-9-----9----9-|
|-7-9-----9--9-9-|-7-9-----9----9-|-7-9-----9----9-|
|-5-7-----7--7-7-|-5-7-----7----7-|-5-7-----7----7-|
|-----0-0--------|-----0-0--------|-----0-0--------|
|-Rhy Fig 1                          end Rhy Fig 1-|

  Gtr I
  E Q.   E Q.
|---------------|
|---------------|
|---------------| w/Rhy Fig 1
|-7-5----7-5----|
|-5-5----5-5----|
|---------------|
|-Rhy Fill 2  --|
| Gtr II
|                     PM|              PM|               PM|
| E Q.   E Q.     E E E E Q  Q     E E E E Q   Q     E E E E Q   Q
|---------------|----------------|-----------------|-----------------|
|---------------|----------------|-----------------|-----------------|
|---------------|-7-9-----9--7---|-7-9-----9---7---|-7-9-----9---7---|
|-7-5----7-5----|-7-9-----9--7---|-7-9-----9---7---|-7-9-----9---7---|
|-5-5----5-5----|-5-7-----7--5---|-5-7-----7---5---|-5-7-----7---5---|
|---------------|-----0-0--------|-----0-0---------|-----0-0---------|
                |-Rhy Fig 1A                          end Rhy Fig 1A-|

                 Guitar Break
   E E Q  H 
|--------------||
|--------------||
|-10-----------||w/Riff A
|-10-----------||
|--8-----------||
|--------------||
|
|              Gtr III
|                                              ~~~~~~~~~~~~
|  E E Q  H       H         Q.       +E     E  Q.      +Q      E          E
|--------------||------------------------|-------------------------------------|
|--------------||------------------------|-------------------------------------|
|-10-----------||----------14pb16r==(14)-|-12----------------------------------|
|-10-----------||------------------------|----14------(14)----12h========14----|
|--8-----------||------------------------|-------------------------------------|
|--------------||------------------------|-------------------------------------|


   E  E  E  E         +E   +E   E  E
|------------------------------------|
|-12----12-14b15=====(14)r(14)-12----|
|-12----12-14b15=====(14)r(14)-12----|
|----14---------------------------14-|
|------------------------------------|
|------------------------------------|


   Q     +Q         Q     Q               E     +E   E  E     Q    E     E
|--------------------------------------|-----------------------------------|
|-12----(12)b12.5--14------------------|-14b15r(14)-12-------12---14b15----|
|-12----(12)b12.5--14------------------|-14b15r(14)-12-------12---14b15----|
|--------------------------------------|---------------14------------------|
|--------------------------------------|-----------------------------------|
|--------------------------------------|-----------------------------------|



                                            |---3----|         |--3--|  |----3-----|
   E     +E   E  E  Q     E         E       E     E  E  Q      E  E  E  E     +E   E
|----------------------------------------|----------12--------12---------------------|
|-14b15r(14)-12----12--------------------|-------12----15b16-----15-12---------------|
|-14b15r(14)-12----12--------------------|-14b16-----------------------14b16r(14)p12-|
|---------------14-------14--------------|-------------------------------------------|
|----------------------------------------|-------------------------------------------|
|----------------------------------------|-------------------------------------------|


  E5
 Gtr II
   Q   Q   Q       E  E   +E   E  E E  E  E  Q
   |   |   |          |    |   |  | |  |  |  |
   /   /   /          /    /   /  / x  x  x  x

 tr I
   W                      +H           Q     Q
|-----------------------|-------------------------||
|-----------------------|-------------------------||
|-----------------------|-------------------------||
|-----------------------|-------------------------||
|--2--------------------|-(2)----------xs====x\---||
|--0--------------------|-(0)----------xs====x\---||
|
|  Q   Q   Q       E  E    E   E  E E  E  E  Q
|-----------------------|-------------------15\---||
|---------12b12.5--x-12-|-----12-12---12-12-15\---||
|---------12b12.5--x-12-|-----12-12---12-12-------||
|-14--14----------------|-------------------------||
|-----------------------|-------------------------||
|-----------------------|-------------------------||


 Verse 2
            ~~~              ~~                        ~~        ~~~
                                       |----3-----|
  Q  Q   a  Q.    E    E  E  Q   E  E  E     +E   E    Q  Q   a  Q.    E
|-------------------|-------------------------------|--------------------|
|-------------------|-------------------------------|--------------------|
|-------------------|-----------12-14-14b16r(14)p12-|--------------------|
|-------12h14----14-|-12h14-14---5--7--7b9r==(7)p=5-|-14-----12h14----14-|
|--------5h=7-----7-|--5h=7--7----------------------|--7------5h=7-----7-|
|-0--0--------------|-------------------------------|-----0--------------|


         ~~
                   |----3-----|
   E  E  Q   E  E  E     +E   E
|-------------------------------|
|-------------------------------|
|-----------12-14-14b16r(14)p12-|
|-12-14-14---5--7--7b9r==(7)p=5-|
|--5h=7--7----------------------|
|-------------------------------|


                       ~~~              ~~
                                                  |----3-----|
   a      +Q    Q   a  Q.    E    E  E  Q   E  E  E     +E   E
|------------------------------|-------------------------------|
|------------------------------|-------------------------------|
|-14b16==(14)r-----------------|-----------12-14-14b16r(14)p12-|
|--7b9====(7)r-----12h14----14-|-12h14-14---5--7--7b9r==(7)p=5-|
|-------------------5h=7-----7-|--5h=7--7----------------------|
|---------------0--------------|-------------------------------|


                          ~~~              ~~
                                                     |----3-----|
  Q  Q  Q  Q    Q  Q   a  Q.    E    E  E  Q   E  E  E     +E   E
|-------------|-------------------|-------------------------------|
|-------------|-------------------|-------------------------------|
|-------------|-------------------|-----------12-14-14b16r(14)p12-|
|----5-----5--|-------12h14----14-|-12h14-14---5--7--7b9r==(7)p=5-|
|-------2-----|--------5h=7-----7-|--5h=7--7----------------------|
|-3-----------|-0--0--------------|-------------------------------|


  Gtrs I, II
                         ~~~~~
   a      +Q    Q     a  Q.         E
|-------------------------------------|
|-------------------------------------|
|-14b16==(14)r------------------------|
|--7b9====(7)r-------12h14---------14-|
|---------------------5h=7----------7-|
|---------------0---------------------|
|
| Gtr III
|                                ~
|          Q    Q        E   +E  Q
|-------------------------------------|
|-------------------------------------|
|-------------------------------------|
|----------7b9--7b9------7b9r(7)-5----|
|-------------------------------------|
|-------------------------------------|


         ~~                 ~~        ~~~
   E  E  Q    E  E  E  E    Q  Q   a  Q.    E
|------------------------|--------------------|
|------------------------|--------------------|
|---------------------12-|--------------------|
|-12h14-14---------12--5-|-14-----12h14----14-|
|--5h=7--7---12h14--5----|--7------5h=7-----7-|
|-------------5h=7-------|-----0--------------|
|
|  E  E  E E  E  E  E  E    W
|------------------------|--------------------|
|------------------------|--------------------|
|------------------------|--------------------|
|----------------------5-|--------------------|
|--5h=7--7----------5----|--------------------|
|----------0--5h=7-------|--------------------|


  Gtr I
         ~~
                   |----3-----|
   E  E  Q   E  E  E     +E   E   Q  Q  Q  Q
|-------------------------------|-------------|
|-------------------------------|-------------|
|-------------------------------|-------------|
|------------5--7--7b9r==(7)p=5-|----5-----5--|
|--5h=7--7----------------------|-------2-----|
|-------------------------------|-3-----------|
|
| Gtr II
|        ~~
|                  |----3-----|
|  E  E  Q   E  E  E     +E   E   Q  Q  Q  Q
|-------------------------------|-------------|
|-------------------------------|-------------|
|-----------12-14-14b16r(14)p12-|-------------|
|-12h14-14----------------------|----5-----5--|
|-------------------------------|-------2-----|
|-------------------------------|-3-----------|


  Q  Q  Q  E  E    +E   E  E  E  E  E  +Q
|---------------|-----------------------------||
|------------12-|-(12)-------12-14-12-(12)\---||
|------------12-|-(12)-13----12-14-12-(12)\---||
|---------------|---------14------------------||
|-2--2--2-------|-----------------------------||
|-0--0--0--0----|-----------------------------||
|
| W                +H            Q      Q
|---------------|-----------------------------||
|---------------|-----------------------------||
|---------------|-----------------------------||
|---------------|-----------------------------||
|-2-------------|--(2)-----------xs=====x\----||
|-0-------------|--(0)-----------xs=====x\----||


 Chorus
 Rhy Fig 1

Rhy Fill 2
Rhy Fig 1 + 1A

  Gtr IV
   Q   Q   Q   Q      Q    Q   Q            Q
|-----------------|-----------------------------||
|-----------------|-----------------------------||
|---------10------|-----------12----------------||
|-----10------10--|-------12---------------12---||
|--8--------------|--10-------------------------||
|-----------------|-----------------------------||
|
| Gtr II
|  W                  H.                    Q
|-----------------|-----------------------------||
|-----------------|-----------------------------||
|-10--------------|--12-------------------------||
|-10--------------|--12-------------------------||
|--8--------------|--10--------------------10\--||
|-----------------|-----------------------------||
|
| Gtr I
|          ~~
|  Q   Q   Q   Q      Q    Q   E      +E   +Q
|-----------------|-----------------------------||
|-----------------|-----------------------------||
|---------10------|-----------12b14==(12)r(12)--||
|-----10------10--|-------12--------------------||
|--8--------------|-/10-------------------------||
|-----------------|-----------------------------||


 Bridge
  $
   Q   Q     Q   E  E    Q   Q   Q   E  E
|-----------12--------|-----14--15--------|
|-----12--------12h13-|-12----------13p12-|
|---------------------|-------------------|
|-14------------------|-------------------|
|---------------------|-------------------|
|---------------------|-------------------|
|-Riff B
| Gtr V
|                        ~~
|  H      Q      E  E    H       Q   Q
|---------------------|-------------------|
|----------------7h=8-|--7-------8---7----|
|--------/9-----------|-------------------|
|---------------------|-------------------|
|---------------------|-------------------|
|---------------------|-------------------|
|
|      PM                    PM
|  Q   Q     Q   E  E    Q   Q   Q   E  E
|---------------------|-------------------|
|---------------------|-------------------|
|---------------------|----------0--------|
|------------2--------|------4------------|
|------2---------2h=3-|--2-----------3p=2-|
|--0------------------|-------------------|
|-Rhy Fig 2

   Q    Q   Q       E  E     Q   Q   Q    Q
|----------15------------|------17-------14--|
|------15----------12h13-|-/15------12-------|
|-12---------------------|-------------------|
|------------------------|-------------------|
|------------------------|-------------------|
|------------------------|-------------------|
|                                 end Riff B-|
|  ~~~
|  H.         +Q             Q   Q   E E  Q
|------------------------|-------------------|
|------------------------|-/10--10---8p7-----|
|--7----------(7)\-------|----------------9--|
|------------------------|-------------------|
|------------------------|-------------------|
|------------------------|-------------------|
|
|       PM
|  Q    Q   Q       E  E     Q   Q   Q    Q
|------------------------|-------------------|
|------------------------|-------------------|
|-----------0------------|-------------------|
|-------0----------------|-------7--------4--|
|-------------------2h=3-|--/5-------2-------|
|--3---------------------|-------------------|
                              end Rhy Fig 2-|

w/Riff B + Rhy Fig 2 both x3
   ~~                   ~~
   Q   Q    Q   E  E    H       Q   Q
|--------------------|-------------------|
|---------------7h=8-|--7-------8---7----|
|--9---9\--/9--------|-------------------|
|--------------------|-------------------|
|--------------------|-------------------|
|--------------------|-------------------|

   ~~~                                        ~~
   H.          +Q          Q   Q   E     +E   Q
|----------------------|-------------------------|
|--8-----------(8)\----|-/10--10--10b12r(10)--8--|
|----------------------|-------------------------|
|----------------------|-------------------------|
|----------------------|-------------------------|
|----------------------|-------------------------|


  Gtrs III, V
   ~~                    ~~
   Q  +Q     Q   E  E    H       Q   Q
|---------------------|-------------------|
|--8--(8)\-------7h=8-|--7-------8---7----|
|-----------/9--------|-------------------|
|-----------/5---7s=9-|--7-------9---7----|
|---------------------|-------------------|
|---------------------|-------------------|
   H         Q   E  E    H       Q   Q


   ~~~
   H.          +Q          Q   Q   E E  Q
|----------------------|-------------------|
|----------------------|-/10--10---8p7-----|
|--7-----------(7)\----|--/7---7---5p4--9--|
|--5-----------(5)\----|----------------5--|
|----------------------|-------------------|
|----------------------|-------------------|
   H.          +Q          Q   Q   E E  Q


   ~~                   ~~
   Q   Q    Q   E  E    H       Q   Q
|--------------------|-------------------|
|---------------7h=8-|--7-------8---7----|
|--9---9\--/9--------|-------------------|
|--5---5\--/5---7s=9-|--7-------9---7----|
|--------------------|-------------------|
|--------------------|-------------------|
|  Q   Q    Q   E  E    H       Q   Q


                                         To Coda
   ~~~                                        ~~
   H.          +Q          Q   Q   E     +E   Q
|----------------------|-------------------------||
|--8-----------(8)\----|-/10--10--10b12r(10)--8--||
|----------------------|--/7---7---7b9r==(7)-----||
|--9-----------(9)\----|----------------------9--||
|----------------------|-------------------------||
|----------------------|-------------------------||
   H.          +Q          Q   Q   E     +E   Q


 Chorus
w/Rhy Fig 1
   Q    Q    H         +W                  +W
|-----------12------|-(12)--------------|-(12)--------------|
|------12-----------|-------------------|-------------------|
|-------------------|-------------------|-------------------|
|-14----------------|-------------------|-------------------|
|-------------------|-------------------|-------------------|
|-------------------|-------------------|-------------------|
|
|                       >
|  ~~~~~~~~~~~~~~~~~~~~~~~~
|  W                   +W                          W
|-------------------|-------------------|-------------------|
|--8----------------|--(8)--------------|-------------------|
|-------------------|-------------------|-------------------|
|--9----------------|--(9)--------------|-------------------|
|-------------------|-------------------|-------------------|
|-------------------|-------------------|-------------------|

w/Rhy Fill 2
  Gtr III
                      |------3------|
   E     E   E     E  E     +E      E  E  E
|-------------------------------------------|
|-------10--------10------------------------|
|-12b14-----12b14----14b16r(14)p===12----12-|
|-------------------------------------14----|
|-------------------------------------------|
|-------------------------------------------|


w/Rhy Fig 1
   ~~~~~~~~~~~~~~~~~~~~~~~~~~~~~~~
   W                 +H       +E      E  E     +E
|-----------------|---------------------------------|
|-----------------|---------------------14b15r(14)p=|
|-----------------|------------------12-14b15r(14)p=|
|-14--------------|-(14)-----(14)-------------------|
|-----------------|---------------------------------|
|-----------------|---------------------------------|


                               |-w/Rhy Fill 2
   Q    E     +E   E   E  E  E    E     +E   E  E     +E   E   E     +E
|------------------------------|-----------------------------------------|
|-12---14b15r(14)p12-----------|-14b15r(14)-12-14b15r(14)-12-------------|
|-12---14b15r(14)p12-----------|-14b15r(14)-12-14b15r(14)-12--14b16r(14)-|
|---------------------12-------|-----------------------------------------|
|------------------------14-12-|-----------------------------------------|
|------------------------------|-----------------------------------------|


w/Rhy Fig 1 + 1A
   ~~~                                              ~~~~~~~~~~~~
   H.            E  E    +H.            E  E     E  E  E  E  E.  S  Q
|---------------------|----------------------|--------------------------|
|-12---------------17-|-(17)--------------15-|--------------------------|
|-12-----------/16----|----------------16----|-/12--------------12-14---|
|---------------------|----------------------|-----14-14-14-14----------|
|---------------------|----------------------|--------------------------|
|---------------------|----------------------|--------------------------|


w/Rhy Fill 2                        |-w/Rhy Fig 1 + 1A
                                                        ~~~
                                      |--3--|
   E     +E   E  E  E  E   S  S  E    S  S  S  E  E  E  Q.   E
|----------------------------------|---------------------------|
|-14b15r(14)-12--------------------|---------------------------|
|-14b15r(14)-12----12-14--14p12----|-12h14p12---------------12-|
|---------------14--------------14-|----------14-12-14-14------|
|----------------------------------|---------------------------|
|----------------------------------|---------------------------|


                  ~~~
   E     E  E  E  Q.     E    E  E  E  Q        E  E  E
|-------12-----------------|----------------------------|
|-----------------------12-|-------------------15-12----|
|-14b16-----------------12-|-12----12-14b16----------14-|
|----------12-14-14--------|----14----------------------|
|--------------------------|----------------------------|
|--------------------------|----------------------------|


  F5VIII
  Gtrs I, II
   E  E Q  H      W          W
   |
   /

  Gtr III
   Q    Q  H      W          W
|---------------|----------|------|
|---------------|----------|------|
|-12\-----------|----------|------|
|---------------|----------|------|
|---------------|----------|------|
|---------------|----------|------|


 Bridge
  G5
  Gtr II
  E  E  E  E  E  E  E  E   E  E  E  E  E  E  E  E
  |  |  |  |  |  |  |  |   |  |  |  |  |  |  |  |
  /  /  /  /  /  /  /  /   /  /  /  /  /  /  /  /

  Gtr I
     PM-----------------------------|
  E  E  E  E  E  E  E  E   E  E  E  E  E  E  E  E
|------------------------|-------------------------|
|------------------------|-------------------------|
|------------------------|-------------------------|
|-5----------------------|-------------5--5--5--5--|
|-5--5--5--5--5--5--5--5-|-5--5--5--5--5--5--5--5--|
|-3--3--3--3--3--3--3--3-|-3--3--3--3--3--3--3--3--|


  PM-------------------|
  E  E  E  E  E  E  E  E
|------------------------|
|------------------------|
|------------------------|
|------------------------|
|-5--5--5--5--5--5--5--5-|
|-3--3--3--3--3--3--3--3-|


   S   S   S   S   S   S   S   S   S   S   S   S    S    S    S    S
|---------------------------------------------------------------------||
|---------------------------------------------------------------------||
|---------------------------------------------------------------------||
|---------------------------------------------------------------------||
|---------------------------------------------------------------------||
|-<4>-<4>-<4>-<4>-<5>-<5>-<5>-<7>-<7>-<7>-<7>-<7>-<12>-<12>-<12>-<12>-||



w/Riff A (1st 6 bars)


                                                  Guitar Solo
  Gtr I               Gtrs I, II
   ~~        ~~                                                 ~~~
   Q  Q   a  Q   E  E    W                          Q   Q    a  Q.    E
|---------------------|-------------------------||----------------------|
|---------------------|-------------------------||----------------------|
|---------------10-10-|-------------------------||----------------------|
|---------------10-10-|-------------------------||----------12h14----14-|
|--7------5s=7---8--8-|-------------------------||-----------5h=7-----7-|
|-----0---------------|-------------------------||--0---0---------------|
|
| Gtr II              Gtr III
|  ~~        ~~          PM---|                     ~~~~~~~
|  Q  Q   a  Q   E  E    E  E  E  E  E  E  E  E     Q   H.
|---------------------|-------------------------||----------------------|
|---------------------|-------------------------||----------------------|
|---------------15-15-|-12-12-12-12-12-12-12-12-||-12-------------------|
|-14-----12h14--------|-------------------------||-----14---------------|
|---------------------|-------------------------||----------------------|
|-----0---------------|-------------------------||----------------------|


         ~~~~~~
                                  |----3-----|
   E  E  Q             E      E   E     +E   E
|----------------------------------------------|
|----------------------------------------------|
|---------------------12-----14--14b16r(14)p12-|
|-12-14-14-------------5------7---7b9r==(7)p=5-|
|--5h=7--7-------------------------------------|
|----------------------------------------------|
|
|        |----3-----|
|  E  E  E     +E   E  Q         +Q
|----------------------------------------------|
|-12-14-14b15r(14)p12-14b15=====(14)r\---------|
|-12-14-14b16r(14)p12-14b16=====(14)r\---------|
|----------------------------------------------|
|----------------------------------------------|
|----------------------------------------------|


   ~~               ~~~~~                        ~~
   Q       Q     a  Q.                E    E  E  Q  Q   Q
|---------------------------------------|-------------------|
|---------------------------------------|-------------------|
|---------------------------------------|-----------7---9---|
|-14------------12h14----------------14-|-12h14-14--7---9---|
|--7-------------5h=7-----------------7-|--5h=7--7--5---7---|
|----------0----------------------------|-------------------|
|
|                                                ~~
|  E E    +Q        E    +E     +Q         E  E  Q  Q.    E
|---------------------------------------|-------------------|
|---------------------------------------|-------------------|
|--2-2b4==(2)r------2b3==(2)b4==(2)r----|--0--------0-------|
|---------------------------------------|-----2--2--------0-|
|---------------------------------------|-------------------|
|---------------------------------------|-------------------|


                       ~~~                     ~~
                                                           |----3-----|
   Q          Q     a  Q.      E    E      E   Q     E  E  E     +E   E
|--------------------------------|--------------------------------------|
|--------------------------------|--------------------------------------|
|--------------------------------|------------------12-14-14b16r(14)p12-|
|------------------12h14------14-|-12-----14--14-----5--7--7b9r==(7)p=5-|
|-------------------5h=7-------7-|--5h=====7---7------------------------|
|--0----------0------------------|--------------------------------------|
|
|  E     +E   E  E     Q    Q       E     +E   E  E  Q     Q
|--------------------------------|--------------------------------------|
|-14b15r(14)-12-------12---14----|-14b15r(14)-12----12------------------|
|-14b15r(14)-12-------12---14----|-14b15r(14)-12----12------------------|
|---------------14---------------|---------------14-------14------------|
|--------------------------------|--------------------------------------|
|--------------------------------|--------------------------------------|


   ~~~~~                 ~~~
   Q           Q      a  Q.                   E
|--------------------------------------------------|
|--------------------------------------------------|
|--------------------------------------------------|
|-14-----------------12h14-------------------14----|
|--7------------------5h=7--------------------7----|
|--------------0-----------------------------------|
|
|  |---3----|            |--3---|  |------3------|
|  E     E  E  Q         E   E  E  E     +E      E
|----------12-----------12-------------------------|
|-------12----15b17---------15-12------------------|
|-14b16---------------------------14b16r(14)p===12-|
|--------------------------------------------------|
|--------------------------------------------------|
|--------------------------------------------------|


                                             D.S. al Coda
  F5VIII                     G5X                    G
  Gtr II
   W                           H.                     Q
   |                           |                      |
   /                           /                      o

  Gtr I
                ~~~~
   Q    Q       Q     Q        Q    Q    E      +E   +Q
|--------------------------|------------------------------||
|--------------------------|------------------------------||
|--------------10----------|------------12b14==(12)r(12)--||
|------10------------10----|-------12---------------------||
|--8-----------------------|-/10--------------------------||
|--------------------------|------------------------------||
|
| Gtr IV
|  Q    Q       Q     Q        Q    Q    Q            Q
|--------------------------|------------------------------||
|--------------------------|------------------------------||
|--------------10----------|------------12----------------||
|------10------------10----|-------12----------------12---||
|--8-----------------------|--10--------------------------||
|--------------------------|------------------------------||
|
| Gtr III
|  Q.      +E   Q     Q        H        +H
|-13------(13)s(8)\--------|--15-------(15)\--------------||
|-13------(13)s(8)\--------|--15-------(15)\--------------||
|--------------------(2)/--|------------------------------||
|--------------------------|------------------------------||
|--------------------------|------------------------------||
|--------------------------|------------------------------||


  &
  E5
  Gtr I
   Q   Q   H                 W
   |
   /

  Gtr IV
   Q   Q   Q   E  E    Q   Q    Q   E  E
|---------12--------|-----14---15--------|
|-----12------12h13-|-12-----------13p12-|
|-------------------|--------------------|
|-14----------------|--------------------|
|-------------------|--------------------|
|-------------------|--------------------|


   W                    W
   Q   Q   Q   E  E     Q   Q   Q   Q
|---------15--------|------17------14--|

|-----15------12h13-|-/15------12------|
|-12----------------|------------------|
|-------------------|------------------|
|-------------------|------------------|
|-------------------|------------------|


   Q   Q   Q   E  E    Q   Q   Q   E  E
|---------12--------|-----14--15--------|
|-----12------12h13-|-12----------13p12-|
|-------------------|-------------------|

|-14----------------|-------------------|
|-------------------|-------------------|
|-------------------|-------------------|


                                      ~~
   Q   Q   Q   E  E     Q   Q   E  E  Q
|---------15--------|------17------------|
|-----15------12h13-|-/15------12h15p12--|
|-12----------------|--------------------|
|-------------------|--------------------|
|-------------------|--------------------|
|-------------------|--------------------|


   Q   Q   Q   E  E    Q   Q   Q   E  E    Q   Q   Q   E  E     Q   Q   Q   Q
|---------12--------|-----14--15--------|---------15--------|------17------14--|
|-----12------12h13-|-12----------13p12-|-----15------12h13-|-/15------12------|
|-------------------|-------------------|-12----------------|------------------|
|-14----------------|-------------------|-------------------|------------------|
|-------------------|-------------------|-------------------|------------------|
|-------------------|-------------------|-------------------|------------------|


   Q   Q   Q   E  E    Q   Q   Q   E  E
|---------12--------|-----14--15--------|
|-----12------12h13-|-12----------13p12-|
|-------------------|-------------------|
|-14----------------|-------------------|
|-------------------|-------------------|
|-------------------|-------------------|


                                      ~~
   Q   Q   Q   E  E     Q   Q   E  E  Q
|---------15--------|------17------------|
|-----15------12h13-|-/15------12h15p12--|
|-12----------------|--------------------|
|-------------------|--------------------|
|-------------------|--------------------|
|-------------------|--------------------|


   Q   Q   Q   E  E    Q   Q   Q   E  E
|---------12--------|-----14--15--------|
|-----12------12h13-|-12----------13p12-|
|-------------------|-------------------|
|-14----------------|-------------------|
|-------------------|-------------------|
|-------------------|-------------------|


   Q   Q   Q   E  E     Q   Q   Q   Q
|---------15--------|------17------14--*|
|-----15------12h13-|-/15------12------*|
|-12----------------|------------------*|
|-------------------|------------------*|
|-------------------|------------------*|
|-------------------|------------------*|
4 comments total. Showing first comments.
+1 reply
mofo310 wrote on April 21 2009, 07:40 pm

you cant even ****in play this

0 reply
Mysterk94 wrote on March 6 2010, 03:59 pm

yea dude are you seriously saying that you put one finger on the 12th fret of the 4th string and the fifth fret of the 5th string and play that? unless you have really really big hands, thats physically impossible. and if thats not what ur saying, you need to learn how to tab.

+1 reply
chris77396 wrote on September 10 2010, 10:32 pm

you all are idiots...its two separate guitars tabbed in the same section...you either play the 5 and 7 part or the 12 and 14 part omfg how dumb can you possibly be. its just saving some room..btw good tab, better than the higher rated one. i guess you have to be smart to read it.

I want to post or [tab]
guest
You may want to rate the tab now too:
select rating
Please do not post tabs as comments. Select "correction" instead!