Oops, an error
Loading. Please wait.

The More I See Tab

ver2
ver2

Whole song

Interactive

More versions @911Tabs.com
4,069 views 6 this week
no commentswrite comment
1 2 3 4 5
excellent!
x 3
Autoscroll
+/-
esc
set tempo
stop
Contributor
WARNING: You are trying to view
                                    content from Ultimate-Guitar.com
                                    in an unauthorized application,
                                    which is prohibited.

                                    Please use an official Ultimate
                                    Guitar Tabs application for iPhone,
                                    iPad or Android to access legitimate
                                    chords, guitar, bass, and drum tabs
                                    from Ultimate-Guitar.com database.

                                    Type "ultimate guitar tabs" in Apple
                                    App Store's or Android Market's
                                    search to find the application.
Band- Metallica
Song- The More I See

Gtr I (C# F# B E G# C#) - 'James Hetfield - Rhythm w/dist'
Gtr II (C# F# B E G# C#) - 'Kirk Hammett - Rhythm w/dist'
Gtr III (Eb Ab Db Gb Bb Eb) - 'Kirk Hammett - Lead w/dist'
Gtr IV (Eb Ab Db Gb Bb Eb) - 'James Hetfield - Rhythm / Lead w/dist'

Intro
  Q=192                  1.,2.,3.
 4/4
  Gtr I
  W            W          W
|----------||-----------|-------||
|----------||o----------|------o||
|----------||-----------|-------||
|----------||-----------|-------||
|----------||o----------|------o||
|----------||-----------|-------||


  4.
    PM------|                   PM----|
  E E E E E E Q    W          E E E E E  E  Q
|----------------|----------|------------------|
|----------------|----------|------------------|
|----------------|----------|------------------|
|----------------|----------|------------------|
|----------------|----------|------------------|
|---0-0-0-0-0----|----------|---0-0-0-0-<4>----|


                                               |---3---|
  W          E Q.     +H       +E  +E   +Q     Q   Q   Q
|----------|-----------------|----------------------------|
|----------|-----------------|--*-------------------------|
|----------|---2b4====(2)----|-(2)-(2)-([2])--[2]-[2]-[2]-|
|----------|-----------------|----------------------------|
|----------|-----------------|----------------------------|
|----------|-----------------|----------------------------|
*Feedback - with 1 vol control off flick switch with rhythm

                              ~~~~~~~~~~~~~~~~
                                                       |--3---|
   Q    Q    +H        +Q.   +E  +H       +E   E  Q   +Q   Q  Q
|--------------------|------------------|--------12--(12)----12-|
|--------------------|------------------|-----15----------15----|
|-[2]--[2]--([2])r===|=(2)---(2)-(2)----|-(2)-------------------|
|--------------------|------------------|-----------------------|
|--------------------|------------------|-----------------------|
|--------------------|------------------|-----------------------|


   +E   Q.    +H            H       H
|-(12)-------------------|-----------------|
|------15----(15)b17=====|=15----([15])----|
|------------------------|-----------------|
|------------------------|-----------------|
|------------------------|-----------------|
|------------------------|-----------------|


   +E     E      E      E      Q      Q      +E    E   E   E   E   E  Q
|-----------------------------------------|------------------------------|
|-(15)-([15])-([15])-([15])-([15])r-------|------------------------------|
|-----------------------------------------|------------------------------|
|------------------------------------<4>--|-(<4>)-<3>-<4>----------------|
|-----------------------------------------|------------------------------|
|-----------------------------------------|---------------<2>-<2>-<3>----|


               PM------|                   PM|
  W          E E E E E E Q    W          E E E  E   E   E  Q
|----------|----------------|----------|----------------------|
|----------|----------------|----------|----------------------|
|----------|----------------|----------|----------------------|
|----------|----------------|----------|----------------------|
|----------|----------------|----------|----------------------|
|----------|---0-0-0-0-0----|----------|---0-0-<4>-<4>-<5>----|


               PM------|                            TP
  W          E E E E E E Q    H    E  E   E   E     H..       E
|----------|----------------|--------------------|--------------||
|----------|----------------|--------------------|--------------||
|----------|----------------|--------------------|--------------||
|----------|----------------|--------------------|--------------||
|----------|----------------|--------------------|------------8-||
|----------|---0-0-0-0-0----|--------<2>-<2>-<3>-|-<4>/-------6-||


    Gtrs I, II
                           PM--------|
    +E  E E E E Q  E   +E  E E E E E E E  4x
||-------------------|--------------------||
||o------------------|-------------------o||
||-------------------|--------------------||
||-------------------|--------------------||
||o-(8)-7-8-7-8-7--5-|-(5)-------------8-o||
||--(6)-5-6-5-6-5--3-|-(3)-0-0-0-0-0-0-6--||
 |-Rhy Fig 1                end Rhy Fig 1-|

   Verse 1, 2

||--
||o-
||-- Rhy Fig 1 x4
||--
||o-
||--



 Chorus
       PM------|          PM--------|        PM------|          PM--------|
  +Q   E E E E E E   +Q   E E E E E E   +Q   E E E E E E   +Q   E E E E E E
|------------------|------------------|------------------|------------------|
|------------------|------------------|------------------|------------------|
|------------------|------------------|------------------|------------------|
|------------------|------------------|------------------|------------------|
|-(8)------------7-|-(7)------------8-|-(8)------------7-|-(7)------------8-|
|-(6)--0-0-0-0-0-5-|-(5)--0-0-0-0-0-6-|-(6)--0-0-0-0-0-5-|-(5)--0-0-0-0-0-6-|
|-Rhy Fig 2             end Rhy Fig 2-|

Rhy Fig 2


 1.
w/Rhy Fig 2
       PM------|         PM        PM
  +Q   E E E E E E   +E  E E E  E  E  E  E
|------------------|-----------------------|
|------------------|-----------------------|
|------------------|-----------------------|
|------------------|-----------------------|
|-(8)------------7-|-(7)-----------------8-|
|-(6)--0-0-0-0-0-5-|-(5)-0-0-0-<4>-0-<4>-6-|


  Gtrs I, II
  Rhy Fig 1 x3


                         PM--------|
  +E  E E E E Q  E   +E  E E E E E E E
|------------------|--------------------||
|------------------|-------------------o||
|------------------|--------------------||
|------------------|--------------------||
|-(8)-7-8-7-8-7--5-|-(5)-------------8-o||
|-(6)-5-6-5-6-5--3-|-(3)-0-0-0-0-0-0-6--||


                                        1st Interlude
  2.
  Gtr II
       PM------|          PM--------|       PM----------------------|
  +Q   E E E E E E   +Q   E E E E E E    Q  E E E E E E   E E E E E E   E  E
|------------------|------------------||----------------|--------------------|
|------------------|------------------||----------------|--------------------|
|------------------|------------------||----------------|--------------------|
|------------------|------------------||-8--------------|--------------------|
|-(8)------------7-|-(7)--------------||-8--8-8-8-8-8-8-|-8-8-8-8-8-8--------|
|-(6)--0-0-0-0-0-5-|-(5)--0-0-0-0-0-0-||-6--6-6-6-6-6-6-|-6-6-6-6-6-6-/12-12-|
|
| Gtr I
|      PM------|          PM--------|       PM----------------------------|
| +Q   E E E E E E   +Q   E E E E E E    Q  E E E E E E   E E E E E E   E  E
|------------------|------------------||----------------|--------------------|
|------------------|------------------||----------------|--------------------|
|------------------|------------------||----------------|--------------------|
|------------------|------------------||-8--------------|---------------8--8-|
|-(8)------------7-|-(7)--------------||-8--8-8-8-8-8-8-|-8-8-8-8-8-8---8--8-|
|-(6)--0-0-0-0-0-5-|-(5)--0-0-0-0-0-0-||-6--6-6-6-6-6-6-|-6-6-6-6-6-6---6--6-|
                                       |-Rhy Fig 3

   Q      E       E    E       E    E       E
|--------12------12---12------12---12------12---|
|-15b17--15b17==(15)r-15b17==(15)r-15b17==(15)r-|
|-----------------------------------------------|
|-----------------------------------------------|
|-----------------------------------------------|
|-----------------------------------------------|
|
|         PM-------------------------------------
|  Q      E       E    E       E    E       E
|-----------------------------------------------|
|-----------------------------------------------|
|--9--------------------------------------------|
|--9------9-------9----9-------9----9-------9---|
|--7------7-------7----7-------7----7-------7---|
|-----------------------------------------------|


            ~~~~~~~~           PM--------|
   Q        Q    Q    E E   Q  E E E E E E
|-12-------12---12----0---|----------------|
|-15b17====15---15r-----0-|----------------|
|-------------------------|----------------|
|-------------------------|-8--------------|
|-------------------------|-8--8-8-8-8-8-8-|
|-------------------------|-6--6-6-6-6-6-6-|
|
|-------------|
|  E     E  E E  E  E Q
|-------------------------|
|-------------------------|
|----------------9--9-9---| w/Rhy Fig 3 x2.5
|--9-----9--9-9--9--9-9---|
|--7-----7--7-7--7--7-7---|
|-------------------------|
            end Rhy Fig 3-|

  PM--------|                                      ~~~~~~~~~~~~~~
  E E E E E E E E    E  E  E      E  E  E  E  E    E  E  E  E  Q    +Q
|-----------------|-15-15-15-----15-15-15-15-15-|-15-15-15-15-15---(15)\---|
|-----------------|-18-18-18b20==18-18-18-18-18-|-18-18-18-18-18---(18)r\--|
|-----------------|-----------------------------|--------------------------|
|-----------------|-----------------------------|--------------------------|
|-8-8-8-8-8-8-8-8-|-----------------------------|--------------------------|
|-6-6-6-6-6-6-6-6-|-----------------------------|--------------------------|


  PM-------------------------------|
  Q  E E E E E E   E E E E E E   E  E    E  E  E      E  E  E  E  E
|----------------|--------------------|-----------------------------|
|----------------|--------------------|-----------------------------|
|----------------|--------------------|-15-15-15b17==15-15-15-15-15-|
|-8--------------|--------------------|-----------------------------|
|-8--8-8-8-8-8-8-|-8-8-8-8-8-8--------|-----------------------------|
|-6--6-6-6-6-6-6-|-6-6-6-6-6-6-/12-12-|-----------------------------|


   ~~~           ~~~~~~~~            PM-------------------------------|
   Q     E      +E   +Q     +Q       Q  E E E E E E   E E E E E E   E  E
|----------------------------------|----------------|--------------------|
|----------------------------------|----------------|--------------------|
|-15r---15b17==(15)-(15)---(15)r\--|----------------|--------------------|
|----------------------------------|-8--------------|--------------------|
|----------------------------------|-8--8-8-8-8-8-8-|-8-8-8-8-8-8--------|
|----------------------------------|-6--6-6-6-6-6-6-|-6-6-6-6-6-6-/12-12-|


  E5                                  Bb5
  Gtr I
   E E E E E E E E     E  E E E  Q.   E
   | | | | | | | |     |  | | |  |    |
   / / / / / / / /     /  / / /  x    /

  Gtr II
   TP                  TP
   W                  +H         Q.   E
|------------------|--------------------||
|-13---------------|-(13)S======18\-----||
|-12---------------|-(12)S======17\-----||
|------------------|--------------------||
|------------------|------------------8-||
|------------------|------------------6-||


    Gtrs I, II
                           PM--------|
    +E  E E E E Q  E   +E  E E E E E E E  4x
||-------------------|--------------------||
||o------------------|-------------------o||
||-------------------|--------------------||
||-------------------|--------------------||
||o-(8)-7-8-7-8-7--5-|-(5)-------------8-o||
||--(6)-5-6-5-6-5--3-|-(3)-0-0-0-0-0-0-6--||


 Chorus
 Rhy Fig 2 x3.5


  Gtr II
       PM--------------|
  +Q   E  E   E   E  E  E    H.             Q     Q   Q  H      Wx6
|-------------------------|--------------------|--------------|--------||
|-------------------------|--------------------|--------------|--------||
|-------------------------|--------------------|--------------|--------||
|-------------------------|--------------------|--------------|--------||
|-(7)---------------------|--------------------|--------------|--------||
|-(5)--0--0---0---0--0-24s|=17s=============4s=|=12\----------|--------||
|
| Gtr I
| +Q   E  E   E   E  Q       Q    E   E  H        W             Wx6
|-------------------------|--------------------|--------------|--------||
|-------------------------|--------------------|--------------|--------||
|-------------------------|--------------------|--------------|--------||
|-------------------------|--------------------|--------------|--------||
|-(7)----------------xs===|==x\----------------|--------------|--------||
|-(5)--0-<6>-<5>-<4>-xs===|==x\--<3>-<2>-------|--------------|--------||


 Interlude
              Gtrs I, II
  Wx11          H    Q  E E
|-------------|-------------||
|-------------|-------------||
|-------------|-------------||
|-------------|-------------||
|-------------|-----------8-||
|-------------|-----------6-||


Rhy Fig 2 x4.5

                                Outro

  Gtr II
           PM---------------|                           PM--------|
   Q       E   E   E   E  E E    +E  E E E E Q  E   +E  E E E E E E E
|-----------------------------||------------------|-------------------|
|-----------------------------||------------------|-------------------|
|-----------------------------||------------------|-------------------|
|-----------------------------||------------------|-------------------|
|-(7)-----------------------8-||-(8)-7-8-7-8-7--5-|-(5)-------------8-|
|-(5)------0---0---0---0--0-6-||-(6)-5-6-5-6-5--3-|-(3)-0-0-0-0-0-0-6-|
|
| Gtr I
|                                                       PM--------|
|  E   E   E   E   E   Q    E    +E  E E E E Q  E   +E  E E E E E E E
|-----------------------------||------------------|-------------------|
|-----------------------------||------------------|-------------------|
|-----------------------------||------------------|-------------------|
|-----------------------------||------------------|-------------------|
|-(7)-----------------------8-||-(8)-7-8-7-8-7--5-|-(5)-------------8-|
|-(5)-<7>-<7>-<5>-<2>-<3>---6-||-(6)-5-6-5-6-5--3-|-(3)-0-0-0-0-0-0-6-|


Rhy Fig 2 x6


                 ~~~~~~~~~~~~~~~~~~~~~
  +E  E E E E Q  E   +W           +W
|------------------|------------|--------|
|------------------|------------|--------|
|------------------|------------|--------|
|------------------|------------|--------|
|-(8)-7-8-7-8-7--5-|-(5)--------|-(5)----|
|-(6)-5-6-5-6-5--3-|-(3)--------|-(3)----|


  ~
  H    +Q.   E   +W           +H      H       W
|--------------|------------|---------------|------||
|--------------|------------|---------------|------||
|------------4-|-(4)--------|-(4)-----------|------||
|------------2-|-(2)--------|-(2)-----------|------||
|-5----(5)---2-|-(2)--------|-(2)----/x\----|------||
|-3----(3)---0-|-(0)--------|-(0)----/x\----|------||


  Half Time Feel Q=108
  Gtr III
   E    E  E    E  E    E  E    E
|-15------15------15------15------|
|-18b20---18b20---18b20---18b20---|
|---------------------------------|
|---------------------------------|
|---------------------------------|
|---------------------------------|
|
| Gtr IV
|  W
|---------------------------------|
|---------------------------------|
|---------------------------------|
|---------------------------------|
|---------------------------------|
|--0------------------------------|


   E    E  E     E  H                H.          S  +E.
|-15------15----------------------|-12------------------|
|-18b20---18b20-------------------|-15b17=======15r(15)-|
|---------------------------------|---------------------|
|---------------------------------|---------------------|
|---------------------------------|---------------------|
|---------------------------------|---------------------|
|
|                                    ~~~~~~
| +Q       E     E  E     +Q    E    W
|---------------------------------|---------------------|
|---------------------------------|---------------------|
|---------------------------------|---------------------|
|---------------------------------|---------------------|
|------------------12b14r(12)-----|---------------------|
|-(0)-----10----12-------------10-|-12------------------|


    ~~~~
                                       |3-|
    W                E      +E    E E  Q  E  Q
|-----------------|--------------15---15-15-15--|
|-----------------|-15b17==(15)r----------------|
|--12-------------|-----------------------------|
|-----------------|-----------------------------|
|-----------------|-----------------------------|
|-----------------|-----------------------------|
|
|   ~~~~
|  +Q.   E Q   Q     W
|-----------------|-----------------------------|
|-----------------|-----------------------------|
|----------9--11--|-12--------------------------|
|-----------------|-----------------------------|
|----------7---9--|-10--------------------------|
|-(12)---0--------|-----------------------------|


                                     |----3-----|
    Q           Q     E      E      +E   +E     E
|--------------15----15---------------------------|
|--15b17--------------------15b17==(15)r(15)p==12-|
|-------------------------------------------------|
|-------------------------------------------------|
|-------------------------------------------------|
|-------------------------------------------------|
|
|  +S     S  Q     E  E     +Q               E
|-------------------------------------------------|
|-------------------------------------------------|
|-(12)--------------------------------------------|
|-------------------------------------------------|
|-(10)---10----------12b14r(12)-------------------|
|-----------10----12-------------------------0----|


   ~~~~~~~~~~~~~~                       ~~~~
                                                 |--3--|
   H         +E   S  S  +E   S  +S      Q.    E  E  E  E  E  E    W
|-----------------------------------|--------------------------|-----------|
|-15b17=====(15)-15-15-(15)-15r(15)-|--------------------------|-15--------|
|-----------------------------------|--12----12-14p12----12-14-|-14b16=====|
|-----------------------------------|-----------------14-------|-----------|
|-----------------------------------|--------------------------|-----------|
|-----------------------------------|--------------------------|-----------|
|
|  ~~~~~~~~~~~~~~~~~~~~~~~~~~~~~~~~~~~~~~~~
|  W                                   +H        Q        Q       W
|-----------------------------------|--------------------------|-----------|
|-----------------------------------|--------------------------|-----------|
|-----------------------------------|------------9-------11----|-12--------|
|-----------------------------------|--------------------------|-----------|
|-----------------------------------|------------7--------9----|-10--------|
|-12--------------------------------|-(12)---------------------|-----------|


                                    |-----3-----|
   +H          E     +S   +S       +E   +E      E
|-------------------------------------------------|
|-------------15----------------------------------|
|-(14)--------14----(14)r(14)b16==(14)r(14)p===12-|
|-------------------------------------------------|
|-------------------------------------------------|
|-------------------------------------------------|
|
|  +E   Q   E  E     +Q                      E
|-------------------------------------------------|
|-------------------------------------------------|
|-(12)--------------------------------------------|
|-------------------------------------------------|
|-(10)--------12b14r(12)--------------------------|
|------12--12-------------------------------10----|


   ~~
   H     a  E  E  Q     Q    S  E.  E  Q     E
|--------------------|-------------------------|
|--------------------|-------------------------|
|--------------------|-------------------------|
|-14----14s12-10-----|-------------------------|
|----------------12--|-10----------------------|
|--------------------|------12-12--10h12----12-|
|
|  ~~
|  H        H          +H           Q     Q
|--------------------|-------------------------|
|--------------------|-------------------------|
|--------------------|--------------9----11----|
|--------------------|-------------------------|
|--------------------|--------------7-----9----|
|-12--------0--------|-(0)---------------------|


    ~~~~
                                    |--3---|
   +H        +S   +E.  Q      Q     E E    E  E      E  Q
|-------------------------|----------------------------------|
|-------------------------|----------------------------------|
|-------------------------|----------------------------------|
|-------------------------|----------------------------------|
|-------------------------|-----------x----x--x\-------------|
|-(12)------(12)-(12)\----|----------------------------------|
|
|   E  Q.    +H              +E   Q      E    E     +Q     E
|-------------------------|----------------------------------|
|-------------------------|----------------------------------|
|--11s12----(12)----------|-(12)-----------------------------|
|-------------------------|----------------------------------|
|---9s10----(10)----------|-(10)-------------12b14r(12)------|
|-------------------------|------10-----12----------------10-|


   W            W
|------------|--------------------------|
|------------|--------------------------|
|------------|--------------------------|
|------------|--------------------------|
|------------|--------------------------|
|------------|--------------------------|
|
|  ~~               ~~~~~~~~~~~~~~
|  H    H      +E   Q.       +Q.    E
|------------|----------------------x---|
|------------|-----15b17====(15)r---x---|
|------------|----------------------x---|
|------------|--------------------------|
|------------|--------------------------|
|-12----0----|-(0)----------------------|


  Gtr IV
                                   ~~~~~
   E.     +S   +E    a       +E   +Q.     S  S
|----------------------------------------------|
|-15b17==(15)-(15)r(15)b17==(15)-(15)r---15p12-|
|----------------------------------------------|
|----------------------------------------------|
|----------------------------------------------|
|----------------------------------------------|


                         |-------6-------|
   S  S  S  S  S  E.    +S   S  S  S  S  S  S  S     +S   S
|-----------------------------------------------------------|
|-----------------------------------------------------------|
|-14-12----12-14-14b16r(14)p12h14p12----12-14-14b16r(14)p12-|
|-------14---------------------------14---------------------|
|-------14--------------------------------------------------|
|-----------------------------------------------------------|


   |-------6--------|  |-------6--------|  |-------6--------|  |-------6--------|
   S  S  E     +S   S  S  S  E     +S   S  S  S  E     +S   S  S  S  E     +S   S
|---------------------------------------------------------------------------------|
|---------------------------------------------------------------------------------|
|-------14b16r(14)p12-------14b16r(14)p12-------14b16r(14)p12-------14b16r(14)p12-|
|-14p12---------------14p12---------------14p12---------------14p12---------------|
|---------------------------------------------------------------------------------|
|---------------------------------------------------------------------------------|


                     ~~~~~~~
   S  S  S  S  S  S  E  +E   +E     E  a  S  S
|-----------------------------------------------|
|-----------------------------------------------|
|-------------------------------------11s12-14--|
|-14p12----12-14-12h14-(14)-(14)\-/12-----------|
|-------14--------------------------------------|
|-----------------------------------------------|


   +E       +E    S  S  S  S      +S    S  S  S  Q
|-------------------12-----------------12-------15b18===|
|----------------12----12-15b17==(15)r----15-12---------|
|-(14)b16==(14)r----------------------------------------|
|-------------------------------------------------------|
|-------------------------------------------------------|
|-------------------------------------------------------|


                                 |---3----|
   +Q.     E      a       +Q    +E   +E   E
|-(15)r---15b17r(15)b18==(15)--(15)r(15)-12-|
|-------------------------------------------|
|-------------------------------------------|
|-------------------------------------------|
|-------------------------------------------|
|-------------------------------------------|


   |3-|  |--3--|
   E  S  S  S  S  S  S  E  +E       +S    S  S  S  S  S
|-15-12-14-12----12----------------------12-------------|
|-------------15----12-15-(15)b17==(15)r----15-12-15-12h|
|-------------------------------------------------------|
|-------------------------------------------------------|
|-------------------------------------------------------|
|-------------------------------------------------------|


   |------6-------|
   S  S  S  S  S  S  S  S  S  S  S     +S   E  +e   E
|---------------------------------------------------x-|
|-15p12----12---------------------------------------x-|
|-------15----15-14-12----12-14-14b16r(14)p12-(12)/-x-|
|----------------------14-----------------------------|
|-----------------------------------------------------|
|-----------------------------------------------------|


                                             G
   W
                                           ~~~
   E.    S      +E.   S      +Q    +E   S  S
|-17b19-17b19==(17)r-17b19==(17)r=(17)-15----|
|-----------------------------------------17-|
|--------------------------------------------|
|--------------------------------------------|
|--------------------------------------------|
|--------------------------------------------|


  E5VII
 tr III
    E  E                Q        H
    |
    /

 ~~~~~~                             ~~~~~~~~
   +E.   a a a  S      +E   +E   S  E.  +E. a a a  S
|--------------17b19==(17)r(17)-15----------------17b19S=|
|-(17)-------x---------------------17--(17)-----x--------|
|----------x----------------------------------x----------|
|--------x----------------------------------x------------|
|--------------------------------------------------------|
|--------------------------------------------------------|


                                    ~~~~~~~~~~                ~~~~~~~
            |---3----|
   Q       +E   +E   E  E  S  S  S  E.    +E   S  S  S  S  a  E  +Q   Q
|-15b17===(15)r(15)-12----------15-----|---------------------------------*|
|----------------------15-15h17----17--|-(17)-17-15----15----------------*|
|--------------------------------------|------------16----16s14-(14)-----*|
|--------------------------------------|---------------------------------*|
|--------------------------------------|---------------------------------*|
|--------------------------------------|---------------------------------*|
comments
We did not receive enough feedback on this tab! Please rate:
print report bad tab
1 2 3 4 5
I want to post or [tab]
guest
You may want to rate the tab now too:
select rating
Please do not post tabs as comments. Select "correction" instead!