Oops, an error
Loading. Please wait.

The Outlaw Torn Bass Tab

ver2
ver2

Whole song

More versions @911Tabs.com
2,699 views 24 this week
no commentswrite comment
1 2 3 4 5
accurate
x 2
Autoscroll
+/-
esc
set tempo
stop
Contributor
Hey! There's an official Ultimate Guitar app which is ideal
for learning songs when you're away from computer. Get the app
WARNING: You are trying to view
                                    content from Ultimate-Guitar.com
                                    in an unauthorized application,
                                    which is prohibited.

                                    Please use an official Ultimate
                                    Guitar Tabs application for iPhone,
                                    iPad or Android to access legitimate
                                    chords, guitar, bass, and drum tabs
                                    from Ultimate-Guitar.com database.

                                    Type "ultimate guitar tabs" in Apple
                                    App Store's or Android Market's
                                    search to find the application.
F#||-----------------------------|----------------------------|
C#||-----------------------------|----------------------------|
G#||-----------------------------|----------------------------|
D#||--0-0--0-0--0-0--0-0--0--0-0-|---0--0-0--0-0--0-0--0--0-0-|


                                                          
----------------------------|----------------------------|
----------------------------|----------------------------|
----------------------------|----------------------------|
---0--0-0--0-0--0-0--0--0-0-|---0--0-0--0-0--0-0--0--0-0-|


                                                          
----------------------------|----------------------------|
----------------------------|----------------------------|
----------------------------|----------------------------|
---0--0-0--0-0--0-0--0--0-0-|---0--0-0--0-0--0-0--0--0-0-|


                                                           
----------------------------|-----------------------------|
----------------------------|-----------------------------|
----------------------------|-----------------------------|
---0--0-0--0-0--0-0--0--0-0-|---0--0-0--0-0--0-0--0-0-3-0-|


                                                                
----------------------------------|----------------------------|
----------------------------------|----------------------------|
--5-7-----7---7---5-7-----7---7---|--5--5-5--5-5--5--5-5-5--5--|
------0-0-0-0-0-0-----0-0-0-0-0-0-|----------------------------|


                                                                
----------------------------------|----------------------------|
----------------------------------|----------------------------|
--5-7-----7---7---5-7-----7---7---|--5--5-5--5-5--5--5-5-5--5--|
------0-0-0-0-0-0-----0-0-0-0-0-0-|----------------------------|


                                                                
----------------------------------|----------------------------|
----------------------------------|----------------------------|
--5-7-----7---7---5-7-----7---7---|--5--5-5--5-5--5--5-5-5--5--|
------0-0-0-0-0-0-----0-0-0-0-0-0-|----------------------------|


                                                                
----------------------------------|----------------------------|
----------------------------------|----------------------------|
--5-7-----7---7---5-7-----7---7---|--5--5-5--5-5--5--5-5-5--5--|
------0-0-0-0-0-0-----0-0-0-0-0-0-|----------------------------|


                                                        
--------------------------|----------------------------|
--------------------------|----------------------------|
--------7-----------------|--------7-------------------|
--0--7-----7/-0--3--4r--3-|--0--7-----7/-3-2-0--3--0-3-|


                                                        
--------------------------|----------------------------|
--------------------------|----------------------------|
--------7-----------------|--------7-------------------|
--0--7-----7/-0--3--4r--3-|--0--7-----7/-3-2-0--3--0-3-|


                                                        
--------------------------|----------------------------|
--------------------------|----------------------------|
--------7-----------------|--------7-------------------|
--0--7-----7/-0--3--4r--3-|--0--7-----7/-3-2-0--3--0-3-|


                                                        
--------------------------|----------------------------|
--------------------------|----------------------------|
--------7-----------------|--------7-------------------|
--0--7-----7/-0--3--4r--3-|--0--7-----7/-3-2-0--3--0-3-|


                                                        
--------------------------|----------------------------|
--------------------------|----------------------------|
--------7-----------------|--------7-------------------|
--0--7-----7/-0--3--4r--3-|--0--7-----7/-3-2-0--3--0-3-|


                                                        
--------------------------|----------------------------|
--------------------------|----------------------------|
--------7-----------------|--------7-------------------|
--0--7-----7/-0--3--4r--3-|--0--7-----7/-3-2-0--3--0-3-|


                                                        
--------------------------|----------------------------|
--------------------------|----------------------------|
--------7-----------------|--------7-------------------|
--0--7-----7/-0--3--4r--3-|--0--7-----7/-3-2-0--3--0-3-|


                                                              
------------------------------|------------------------------|
------------------------------|------------------------------|
---------5-------------5------|---------5-------------5------|
--7-5-7-----7-5-7-5-7-----7-5-|--7-5-7-----7-5-7-5-7-----7-5-|


                                                              
------------------------------|------------------------------|
------------------------------|------------------------------|
---------3-------------3------|---------3-------------3------|
--5-3-5-----5-3-5-3-5-----5-3-|--5-3-5-----5-3-5-3-5-----5-3-|


                                                                
----------------------------------|----------------------------|
----------------------------------|----------------------------|
--5-7-----7---7---5-7-----7---7---|--5--5-5--5-5--5--5-5-5--5--|
------0-0-0-0-0-0-----0-0-0-0-0-0-|----------------------------|


                                                                
----------------------------------|----------------------------|
----------------------------------|----------------------------|
--5-7-----7---7---5-7-----7---7---|--5--5-5--5-5--5--5-5-5--5--|
------0-0-0-0-0-0-----0-0-0-0-0-0-|----------------------------|


                                                                
----------------------------------|----------------------------|
----------------------------------|----------------------------|
--5-7-----7---7---5-7-----7---7---|--5--5-5--5-5--5--5-5-5--5--|
------0-0-0-0-0-0-----0-0-0-0-0-0-|----------------------------|


                                                                
----------------------------------|----------------------------|
----------------------------------|----------------------------|
--5-7-----7---7---5-7-----7---7---|--5--5-5--5-5--5--5-5-5--5--|
------0-0-0-0-0-0-----0-0-0-0-0-0-|----------------------------|


                                                        
--------------------------|----------------------------|
--------------------------|----------------------------|
--------7-----------------|--------7-------------------|
--0--7-----7/-0--3--4r--3-|--0--7-----7/-3-2-0--3--0-3-|


                                                        
--------------------------|----------------------------|
--------------------------|----------------------------|
--------7-----------------|--------7-------------------|
--0--7-----7/-0--3--4r--3-|--0--7-----7/-3-2-0--3--0-3-|


                                                        
--------------------------|----------------------------|
--------------------------|----------------------------|
--------7-----------------|--------7-------------------|
--0--7-----7/-0--3--4r--3-|--0--7-----7/-3-2-0--3--0-3-|


                                                        
--------------------------|----------------------------|
--------------------------|----------------------------|
--------7-----------------|--------7-------------------|
--0--7-----7/-0--3--4r--3-|--0--7-----7/-3-2-0--3--0-3-|


                                                        
--------------------------|----------------------------|
--------------------------|----------------------------|
--------7-----------------|--------7-------------------|
--0--7-----7/-0--3--4r--3-|--0--7-----7/-3-2-0--3--0-3-|


                                                        
--------------------------|----------------------------|
--------------------------|----------------------------|
--------7-----------------|--------7-------------------|
--0--7-----7/-0--3--4r--3-|--0--7-----7/-3-2-0--3--0-3-|


                                                        
--------------------------|----------------------------|
--------------------------|----------------------------|
--------7-----------------|--------7-------------------|
--0--7-----7/-0--3--4r--3-|--0--7-----7/-3-2-0--3--0-3-|


                                                              
------------------------------|------------------------------|
------------------------------|------------------------------|
---------5-------------5------|---------5-------------5------|
--7-5-7-----7-5-7-5-7-----7-5-|--7-5-7-----7-5-7-5-7-----7-5-|


                                                              
------------------------------|------------------------------|
------------------------------|------------------------------|
---------3-------------3------|---------3-------------3------|
--5-3-5-----5-3-5-3-5-----5-3-|--5-3-5-----5-3-5-3-5-----5-3-|


                                                                
----------------------------------|----------------------------|
----------------------------------|----------------------------|
--5-7-----7---7---5-7-----7---7---|--5--5-5--5-5--5--5-5-5--5--|
------0-0-0-0-0-0-----0-0-0-0-0-0-|----------------------------|


                                                                
----------------------------------|----------------------------|
----------------------------------|----------------------------|
--5-7-----7---7---5-7-----7---7---|--5--5-5--5-5--5--5-5-5--5--|
------0-0-0-0-0-0-----0-0-0-0-0-0-|----------------------------|


                                                                
----------------------------------|----------------------------|
----------------------------------|----------------------------|
--5-7-----7---7---5-7-----7---7---|--5--5-5--5-5--5--5-5-5--5--|
------0-0-0-0-0-0-----0-0-0-0-0-0-|----------------------------|


                                                                
----------------------------------|----------------------------|
----------------------------------|----------------------------|
--5-7-----7---7---5-7-----7---7---|--5--5-5--5-5--5--5-5-5--5--|
------0-0-0-0-0-0-----0-0-0-0-0-0-|----------------------------|


                                                                      
----------------------------------|----------------------------------|
----------------------------------|----------------------------------|
--5-7-7-----------5---------------|----------------------------------|
--------0-0-0-0-0---5-5-3-5-5-5-0-|--3-5-5-5-5-5-5-3-5-3-3-2-3-3-3-3-|


                                                                      
----------------------------------|----------------------------------|
----------------------------------|----------------------------------|
--5-7-7-----------5---------------|----------------------------------|
--------0-0-0-0-0---5-5-3-5-5-5-0-|--3-5-5-5-5-5-5-3-5-3-3-2-3-3-3-3-|


                                                                      
----------------------------------|----------------------------------|
----------------------------------|----------------------------------|
--5-7-7-----------5---------------|----------------------------------|
--------0-0-0-0-0---5-5-3-5-5-5-0-|--3-5-5-5-5-5-5-3-5-3-3-2-3-3-3-3-|


                                                                      
----------------------------------|----------------------------------|
----------------------------------|----------------------------------|
--5-7-7-----------5---------------|----------------------------------|
--------0-0-0-0-0---5-5-3-5-5-5-0-|--3-5-5-5-5-5-5-3-5-3-3-2-3-3-3-3-|


                                                          
----------------------------|----------------------------|
----------------------------|----------------------------|
----------------------------|----------------------------|
--0-0--0-0--0-0--0-0--0-0---|--0-0--0-0--0-0--0-0--0-0---|


                                                          
----------------------------|----------------------------|
----------------------------|----------------------------|
----------------------------|----------------------------|
--0-0--0-0--0-0--0-0--0-0---|--0-0--0-0--0-0--0-0--0-0---|


                                                          
----------------------------|----------------------------|
----------------------------|----------------------------|
----------------------------|----------------------------|
--0-0--0-0--0-0--0-0--0-0---|--0-0--0-0--0-0--0-0--0-0---|


                                                          
----------------------------|----------------------------|
----------------------------|----------------------------|
----------------------------|----------------------------|
--0-0--0-0--0-0--0-0--0-0---|--0-0--0-0--0-0--0-0--0-0---|


                                                          
----------------------------|----------------------------|
----------------------------|----------------------------|
----------------------------|----------------------------|
--0-0--0-0--0-0--0-0--0-0---|--0-0--0-0--0-0--0-0--0-0---|


                                                          
----------------------------|----------------------------|
----------------------------|----------------------------|
----------------------------|----------------------------|
--0-0--0-0--0-0--0-0--0-0---|--0-0--0-0--0-0--0-0--0-0---|


                                                          
----------------------------|----------------------------|
----------------------------|----------------------------|
----------------------------|----------------------------|
--0-0--0-0--0-0--0-0--0-0---|--0-0--0-0--0-0--0-0--0-0---|


                                                          
----------------------------|----------------------------|
----------------------------|----------------------------|
----------------------------|----------------------------|
--0-0--0-0--0-0--0-0--0-0---|--0-0--0-0--0-0--0-0--0-0---|


                                                          
----------------------------|----------------------------|
----------------------------|----------------------------|
--2-2--2-2--2-2--2-2--2-2---|--2-2--2-2--2-2--2-2--2-2---|
----------------------------|----------------------------|


                                                          
----------------------------|----------------------------|
----------------------------|----------------------------|
--2-2--2-2--2-2--2-2--2-2---|--2-2--2-2--2-2--2-2--2-2---|
----------------------------|----------------------------|


                                                                
----------------------------------|----------------------------|
----------------------------------|----------------------------|
--5-7-----7---7---5-7-----7---7---|--5--5-5--5-5--5--5-5-5--5--|
------0-0-0-0-0-0-----0-0-0-0-0-0-|----------------------------|


                                                                
----------------------------------|----------------------------|
----------------------------------|----------------------------|
--5-7-----7---7---5-7-----7---7---|--5--5-5--5-5--5--5-5-5--5--|
------0-0-0-0-0-0-----0-0-0-0-0-0-|----------------------------|


                                                                
----------------------------------|----------------------------|
----------------------------------|----------------------------|
--5-7-----7---7---5-7-----7---7---|--5--5-5--5-5--5--5-5-5--5--|
------0-0-0-0-0-0-----0-0-0-0-0-0-|----------------------------|


                                                                
----------------------------------|----------------------------|
----------------------------------|----------------------------|
--5-7-----7---7---5-7-----7---7---|--5--5-5--5-5--5--5-5-5--5--|
------0-0-0-0-0-0-----0-0-0-0-0-0-|----------------------------|


                                                                      
----------------------------------|----------------------------------|
----------------------------------|----------------------------------|
--5-7-7-----------5---------------|----------------------------------|
--------0-0-0-0-0---5-5-3-5-5-5-0-|--3-5-5-5-5-5-5-3-5-3-3-2-3-3-3-3-|


                                                                      
----------------------------------|----------------------------------|
----------------------------------|----------------------------------|
--5-7-7-----------5---------------|----------------------------------|
--------0-0-0-0-0---5-5-3-5-5-5-0-|--3-5-5-5-5-5-5-3-5-3-3-2-3-3-3-3-|


                                                                      
----------------------------------|----------------------------------|
----------------------------------|----------------------------------|
--5-7-7-----------5---------------|----------------------------------|
--------0-0-0-0-0---5-5-3-5-5-5-0-|--3-5-5-5-5-5-5-3-5-3-3-2-3-3-3-3-|


                                                                      
----------------------------------|----------------------------------|
----------------------------------|----------------------------------|
--5-7-7-----------5---------------|----------------------------------|
--------0-0-0-0-0---5-5-3-5-5-5-0-|--3-5-5-5-5-5-5-3-5-3-3-2-3-3-3-3-|


                                                          
----------------------------|----------------------------|
----------------------------|----------------------------|
----------------------------|----------------------------|
--0-0--0-0--0-0--0-0--0-0---|--0-0--0-0--0-0--0-0--0-0---|


                                                          
----------------------------|----------------------------|
----------------------------|----------------------------|
----------------------------|----------------------------|
--0-0--0-0--0-0--0-0--0-0---|--0-0--0-0--0-0--0-0--0-0---|


                                                          
----------------------------|----------------------------|
----------------------------|----------------------------|
----------------------------|----------------------------|
--0-0--0-0--0-0--0-0--0-0---|--0-0--0-0--0-0--0-0--0-0---|


                                                          
----------------------------|----------------------------|
----------------------------|----------------------------|
----------------------------|----------------------------|
--0-0--0-0--0-0--0-0--0-0---|--0-0--0-0--0-0--0-0--0-0---|


                                                          
----------------------------|----------------------------|
----------------------------|----------------------------|
----------------------------|----------------------------|
--0-0--0-0--0-0--0-0--0-0---|--0-0--0-0--0-0--0-0--0-0---|


                                                          
----------------------------|----------------------------|
----------------------------|----------------------------|
----------------------------|----------------------------|
--0-0--0-0--0-0--0-0--0-0---|--0-0--0-0--0-0--0-0--0-0---|


                                                              
------------------------------|------------------------------|
------------------------------|------------------------------|
------------------------------|------------------------------|
--0-0--0-0--0-0-1-1--1-1--1-1-|--2-2--2-2--2-2-3-3--3-3--3-3-|


                                                              
------------------------------|------------------------------|
------------------------------|------------------------------|
------------------------------|------------------------------|
--0-0--0-0--0-0-1-1--1-1--1-1-|--2-2--2-2--2-2-3-3--3-3--3-3-|


                                                              
------------------------------|------------------------------|
------------------------------|------------------------------|
------------------------------|------------------------------|
--0-0--0-0--0-0-1-1--1-1--1-1-|--2-2--2-2--2-2-3-3--3-3--3-3-|


                                                              
------------------------------|------------------------------|
------------------------------|------------------------------|
------------------------------|------------------------------|
--0-0--0-0--0-0-1-1--1-1--1-1-|--2-2--2-2--2-2-3-3--3-3--3-3-|


                                                              
------------------------------|------------------------------|
------------------------------|------------------------------|
------------------------------|------------------------------|
--0-0-0--0-0--0-1-1-1--1-1--1-|--2-2-2--2-2--2-3-3-3--3-3--3-|


                                                              
------------------------------|------------------------------|
------------------------------|------------------------------|
------------------------------|------------------------------|
--0-0-0--0-0--0-1-1-1--1-1--1-|--2-2-2--2-2--2-3-3-3--3-3--3-|


                                                                
------------------------------|--------------------------------|
------------------------------|--------------------------------|
------------------------------|--------------------------------|
--0-0-0--0-0--0-1-1-1--1-1--1-|--2--2--2-2-2-2-3-3-3-3-3-3-3-3-|


                                                                  
--------------------------------|--------------------------------|
--------------------------------|--------------------------------|
--------------------------------|--------------------------------|
--0--0--0-0-0-0-1-1-1-1-1-1-1-1-|--2--2--2-2-2-2-3-3-3-3-3-3-3-3-|


                                                                  
--------------------------------|--------------------------------|
--------------------------------|--------------------------------|
--------------------------------|--------------------------------|
--0--0--0-0-0-0-1-1-1-1-1-1-1-1-|--2--2--2-2-2-2-3-3-3-3-3-3-3-3-|


                                                                  
--------------------------------|--------------------------------|
--------------------------------|--------------------------------|
--------------------------------|--------------------------------|
--0--0--0-0-0-0-1-1-1-1-1-1-1-1-|--2--2--2-2-2-2-3-3-3-3-3-3-3-3-|


                                                                  
--------------------------------|--------------------------------|
--------------------------------|--------------------------------|
--------------------------------|--------------------------------|
--0--0--0-0-0-0-1-1-1-1-1-1-1-1-|--2--2--2-2-2-2-3-3-3-3-3-3-3-3-|


                                                                  
--------------------------------|--------------------------------|
--------------------------------|--------------------------------|
--------------------------------|--------------------------------|
--0--0--0-0-0-0-1-1-1-1-1-1-1-1-|--2--2--2-2-2-2-3-3-3-3-3-3-3-3-|


                                                                  
--------------------------------|--------------------------------|
--------------------------------|--------------------------------|
--------------------------------|--------------------------------|
--0--0--0-0-0-0-1-1-1-1-1-1-1-1-|--2--2--2-2-2-2-3-3-3-3-3-3-3-3-|


                                                                  
--------------------------------|--------------------------------|
--------------------------------|--------------------------------|
--------------------------------|--------------------------------|
--0--0--0-0-0-0-1-1-1-1-1-1-1-1-|--2--2--2-2-2-2-3-3-3-3-3-3-3-3-|


                                                                  
--------------------------------|--------------------------------|
--------------------------------|--------------------------------|
--------------------------------|--------------------------------|
--0--0--0-0-0-0-1-1-1-1-1-1-1-1-|--2--2--2-2-2-2-3-3-3-3-3-3-3-3-|


                                                                  
--------------------------------|--------------------------------|
--------------------------------|--------------------------------|
--------------------------------|--------------------------------|
--0--0--0-0-0-0-1-1-1-1-1-1-1-1-|--2--2--2-2-2-2-3-3-3-3-3-3-3-3-|


                                        
-------------------|------------------||
-------------------|------------------||
-------------------|------------------||
--0----------------|------------------||
comments
We did not receive enough feedback on this tab! Please rate:
print report bad tab
1 2 3 4 5
I want to post or [tab]
guest
You may want to rate the tab now too:
select rating
Please do not post tabs as comments. Select "correction" instead!