Oops, an error
Loading. Please wait.

The Outlaw Torn Tab

ver2
ver2

Solo

Whole song

More versions @911Tabs.com
5,566 views 9 this week
8 commentsread comments
1 2 3 4 5
accurate
x 5
Autoscroll
+/-
esc
set tempo
stop
Contributor
WARNING: You are trying to view
                                    content from Ultimate-Guitar.com
                                    in an unauthorized application,
                                    which is prohibited.

                                    Please use an official Ultimate
                                    Guitar Tabs application for iPhone,
                                    iPad or Android to access legitimate
                                    chords, guitar, bass, and drum tabs
                                    from Ultimate-Guitar.com database.

                                    Type "ultimate guitar tabs" in Apple
                                    App Store's or Android Market's
                                    search to find the application.
Outlaw Torn - Metallica

**Rythm**

D#||---------------------------0-|--------------------------0-|
A#||---------------------------0-|--------------------------0-|
F#||---------------------------0-|--------------------------0-|
C#||--3-3--3-3--3-3--3-3--3--3-3-|---3--3-3--3-3--3-3--3--3-3-|
G#||--3-3--3-3--3-3--3-3--3--3-3-|---3--3-3--3-3--3-3--3--3-3-|
D#||--0-0--0-0--0-0--0-0--0--0-0-|---0--0-0--0-0--0-0--0--0-0-|


                                                          
--------------------------0-|--------------------------0-|
--------------------------0-|--------------------------0-|
--------------------------0-|--------------------------0-|
---3--3-3--3-3--3-3--3--3-3-|---3--3-3--3-3--3-3--3--3-3-|
---3--3-3--3-3--3-3--3--3-3-|---3--3-3--3-3--3-3--3--3-3-|
---0--0-0--0-0--0-0--0--0-0-|---0--0-0--0-0--0-0--0--0-0-|


                                                          
--------------------------0-|--------------------------0-|
--------------------------0-|--------------------------0-|
--------------------------0-|--------------------------0-|
---3--3-3--3-3--3-3--3--3-3-|---3--3-3--3-3--3-3--3--3-3-|
---3--3-3--3-3--3-3--3--3-3-|---3--3-3--3-3--3-3--3--3-3-|
---0--0-0--0-0--0-0--0--0-0-|---0--0-0--0-0--0-0--0--0-0-|


                                                           
--------------------------0-|-----------------------------|
--------------------------0-|-----------------------------|
--------------------------0-|-----------------------------|
---3--3-3--3-3--3-3--3--3-3-|---3--3-3--3-3--3-3--3-------|
---3--3-3--3-3--3-3--3--3-3-|---3--3-3--3-3--3-3--3-------|
---0--0-0--0-0--0-0--0--0-0-|---0--0-0--0-0--0-0----0-3-0-|


                                                                
----------------------------------|----------------------------|
----------------------------------|----------------------------|
----------------------------------|----------------------------|
----------------------------------|--4r--------4r------4-4r----|
--5-7---7---5-7---5-7---5-7---7---|--5--5-5--5-5--5--5-5-5--5--|
--0-0-0-0-0-0-0-0-0-0-0-0-0-0-0-0-|----------------------------|


                                                                
----------------------------------|----------------------------|
----------------------------------|----------------------------|
----------------------------------|----------------------------|
----------------------------------|--4r--------4r------4-4r----|
--5-7---7---5-7---5-7---5-7---7---|--5--5-5--5-5--5--5-5-5--5--|
--0-0-0-0-0-0-0-0-0-0-0-0-0-0-0-0-|----------------------------|


                                                                
----------------------------------|----------------------------|
----------------------------------|----------------------------|
----------------------------------|----------------------------|
----------------------------------|--4r--------4r------4-4r----|
--5-7---7---5-7---5-7---5-7---7---|--5--5-5--5-5--5--5-5-5--5--|
--0-0-0-0-0-0-0-0-0-0-0-0-0-0-0-0-|----------------------------|


                                                                
----------------------------------|----------------------------|
----------------------------------|----------------------------|
----------------------------------|----------------------------|
----------------------------------|--4r--------4r------4-4r----|
--5-7---7---5-7---5-7---5-7---7---|--5--5-5--5-5--5--5-5-5--5--|
--0-0-0-0-0-0-0-0-0-0-0-0-0-0-0-0-|----------------------------|


  D5E5                                                                         
--------------------|-------------------|------------------|------------------|
--------------------|-------------------|------------------|------------------|
--7-9---------------|----------------9/-|------------------|------------------|
--7-9---------------|----------------9/-|------------------|------------------|
--5-7---------------|----------------7/-|------------------|------------------|
--------------------|-------------------|------------------|------------------|


                                                                                
------------------|------------------|------------------|----------------------|
------------------|------------------|------------------|----------------------|
------------------|------------------|------------------|----------------------|
------------------|------------------|------------------|----------4r-4r-4r-4b-|
------------------|------------------|------------------|----------------------|
------------------|------------------|------------------|----------------------|


  D5E5                                                                          
---------------------|-------------------|------------------|------------------|
---------------------|-------------------|------------------|------------------|
--7-9-------------9/-|--x----------------|------------------|------------------|
--7-9-------------9/-|--x----------------|------------------|------------------|
--5-7-------------7/-|--x----------------|------------------|------------------|
---------------------|-------------------|------------------|------------------|


                                            D5B5                
------------------|----------------------|---------------------|
------------------|----------------------|---------------------|
------------------|----------------------|--7/4-------------4/-|
------------------|----------7r-7r-7r-7b-|--7/4-------------4/-|
------------------|----------------------|--5/2-------------2/-|
------------------|----------------------|---------------------|


                                                             
-------------------|------------------|---------------------|
-------------------|------------------|---------------------|
--x----------------|------------------|---------------------|
--x----------------|------------------|--------------x-x-x--|
--x----------------|------------------|--------------x-x-x--|
-------------------|------------------|--------------x-x-x--|


                                                                
----------------------------------|----------------------------|
----------------------------------|----------------------------|
----------------------------------|----------------------------|
----------------------------------|--4r--------4r------4-4r----|
--5-7---7---5-7---5-7---5-7---7---|--5--5-5--5-5--5--5-5-5--5--|
--0-0-0-0-0-0-0-0-0-0-0-0-0-0-0-0-|----------------------------|


                                                                
----------------------------------|----------------------------|
----------------------------------|----------------------------|
----------------------------------|----------------------------|
----------------------------------|--4r--------4r------4-4r----|
--5-7---7---5-7---5-7---5-7---7---|--5--5-5--5-5--5--5-5-5--5--|
--0-0-0-0-0-0-0-0-0-0-0-0-0-0-0-0-|----------------------------|


                                                                
----------------------------------|----------------------------|
----------------------------------|----------------------------|
----------------------------------|----------------------------|
----------------------------------|--4r--------4r------4-4r----|
--5-7---7---5-7---5-7---5-7---7---|--5--5-5--5-5--5--5-5-5--5--|
--0-0-0-0-0-0-0-0-0-0-0-0-0-0-0-0-|----------------------------|


                                                                
----------------------------------|----------------------------|
----------------------------------|----------------------------|
----------------------------------|----------------------------|
----------------------------------|--4r--------4r------4-4r----|
--5-7---7---5-7---5-7---5-7---7---|--5--5-5--5-5--5--5-5-5--5--|
--0-0-0-0-0-0-0-0-0-0-0-0-0-0-0-0-|----------------------------|


  D5E5                                                        
--------------------|-------------------|--3-3---------------|
--------------------|-------------------|--3-3---------------|
--7-9---------------|----------------9/-|--------------------|
--7-9---------------|----------------9/-|--------------------|
--5-7---------------|----------------7/-|--------------------|
--------------------|-------------------|--------------------|


                                                                            
------------------|------------------|------------------|------------------|
------------------|------------------|------------------|------------------|
------------------|------------------|------------------|------------------|
------------------|------------------|------------------|------------------|
------------------|------------------|------------------|------------------|
------------------|------------------|------------------|------------------|


                         D5E5                                      
----------------------|-----------------------|-------------------|
----------------------|-----------------------|-------------------|
----------------------|--7-9--------------x-x-|--x----------------|
----------4r-4r-4r-4b-|--7-9--------------x-x-|--x----------------|
----------------------|--5-7--------------x-x-|--x----------------|
----------------------|-----------------------|-------------------|


                                                                                
------------------|------------------|------------------|----------------------|
------------------|------------------|------------------|----------------------|
------------------|------------------|------------------|----------------------|
------------------|------------------|------------------|----------7r-7r-7r-7b-|
------------------|------------------|------------------|----------------------|
------------------|------------------|------------------|----------------------|


  D5B5                    B5                  B5A5                
---------------------|---------------------|---------------------|
---------------------|---------------------|---------------------|
--7-4-------------4/-|----4-------------4/-|--4-2-------------2/-|
--7-4-------------4/-|----4-------------4/-|--4-2-------------2/-|
--5-2-------------2/-|--0-2-------------2/-|--2-0-------------0/-|
---------------------|---------------------|---------------------|


    A5                                                   
---------------------|----------------------------------|
---------------------|----------------------------------|
----2-------------2/-|----------------------------------|
----2-------------2/-|----------------------------------|
----0-------------0/-|--5-7---7---5-7---5-7---5-7---7---|
--3------------------|--0-0-0-0-0-0-0-0-0-0-0-0-0-0-0-0-|


                                                                
----------------------------|----------------------------------|
----------------------------|----------------------------------|
----------------------------|----------------------------------|
--4r--------4r------4-4r----|----------------------------------|
--5--5-5--5-5--5--5-5-5--5--|--5-7---7---5-7---5-7---5-7---7---|
----------------------------|--0-0-0-0-0-0-0-0-0-0-0-0-0-0-0-0-|


                                                                
----------------------------|----------------------------------|
----------------------------|----------------------------------|
----------------------------|----------------------------------|
--4r--------4r------4-4r----|--------------5-----------5-------|
--5--5-5--5-5--5--5-5-5--5--|--5-7-----------7-----------7-----|
----------------------------|--0-0-0-0-0-0---0-0-0-0-0---0-0-0-|


                                                                
----------------------------|----------------------------------|
----------------------------|----------------------------------|
----------------------------|----------------------------------|
--4r--------4r------4-4r----|--------------5-----------5-------|
--5--5-5--5-5--5--5-5-5--5--|--5-7-----------7-----------7-----|
----------------------------|--0-0-0-0-0-0---0-0-0-0-0---0-0-0-|


                                     D5E5          D5A5 G5A5       
----------------------------------|-------------------------------|
----------------------------------|-------------------------------|
----------------------11/12-12-12-|--7-9-----------7--------------|
--4r--------4r--------------------|--7-9-----------7-7--5-7-7-7---|
--5--5-5--5-5--5--5/9-9/-10-10-10-|--5-7-----------5-7--5-7-7-7---|
----------------------------------|-------0-0--0-0---5--3-5-5-5-0-|


  G5A5            G5 D/G5       D5E5                 D5A5 G5A5       
-----------------------------|--------------------------------------|
-----------------------------|--------------------------------------|
-----------------------------|--7-9--12-12-12-12-12/-7--------------|
--5-7--7-7--7----------------|--7-9--12-12-12-12-12/-7-7--5-7-7-7---|
--5-7--7-7--7---7-5--5-5--5--|--5-7------------------5-7--5-7-7-7---|
--3-5--5-5--5-3-5-3--2-3--3--|-------------------------5--3-5-5-5-0-|


  G5A5                        D5E5          D5A5 G5A5       
---------------------------|-------------------------------|
---------------------------|-------------------------------|
---------------------------|--7-9-----------7--------------|
--5-7---7--7---7-5---x-4---|--7-9-----------7-7--5-7-7-7---|
--5-7---7--7---------------|--5-7-----------5-7--5-7-7-7---|
--3-5---5--5-0-5/3---x-2---|-------0-0--0-0---5--3-5-5-5-0-|


  G5A5            G5 D/G5       D5E5                 D5A5 G5A5       
-----------------------------|--------------------------------------|
-----------------------------|--------------------------------------|
-----------------------------|--7-9--12-12-12-12-12/-7--------------|
--5-7--7-7--7----------------|--7-9--12-12-12-12-12/-7-7--5-7-7-7---|
--5-7--7-7--7---7-5--5-5--5--|--5-7------------------5-7--5-7-7-7---|
--3-5--5-5--5-3-5-3--2-3--3--|-------------------------5--3-5-5-5-0-|


  G5A5                        E5                                      
---------------------------|-------------------|---------------------|
---------------------------|-------------------|---------------------|
---------------------------|-------------------|-------------------0-|
--5-7---7--7---7-5---x-4---|-------------------|-----------------4---|
--5-7---7--7---------------|--2----------------|---------------------|
--3-5---5--5-0-5/3---x-2---|--0----------------|---------------------|


                                                              
-------------------|------------------|----------------------|
--3----------------|------------------|----------------------|
-------------------|------------------|----------------------|
-------------------|------------------|-------------5--7r-5--|
-------------------|------------------|--7-------------------|
-------------------|------------------|----------------------|


                                                                 
--------------------|----------------------|--------------------|
--------------------|----------------------|--------------------|
--------------------|----------------------|--------------------|
--------------------|-------------5--7r-5--|--------------------|
--7----------7/-----|--7-------------------|--7----------7/-----|
--------------------|----------------------|--------------------|


                                                        
--------------------------|----------------------------|
--------------------------|----------------------------|
--------------12--14r-12--|--14r-14b-------12--14r-12--|
--14----------------------|----------------------------|
--------------------------|----------------------------|
--------------------------|----------------------------|


                                                                         
----------------------------|--------------------|----------------------|
----------------------------|--------------------|----------------------|
----------------12--14r-12--|--14r---------------|----------------------|
--14h12---------------------|--------------------|---------5--7------9--|
----------------------------|--------------------|--7-------------------|
----------------------------|--------------------|----------------------|


                                                                   
---------------------|----------------------|---------------------|
---------------------|----------------------|---------------------|
---------------------|----------------------|---------------------|
---------5-----------|---------5--7------9--|---------5-----------|
--5---------7--------|--7-------------------|--5---------7--------|
---------------------|----------------------|---------------------|


                                                                     
----------------------|----------------------|----------------------|
----------------------|----------------------|----------------------|
----------------------|----------------------|----------------------|
-------------------7--|--9----------------9--|--7----------------9--|
---------5--5---------|---------5--5---------|---------3r-3---------|
--7-------------------|----------------------|----------------------|


                                                            
------------------------|----------------------------------|
------------------------|----------------------------------|
------------------------|----------------------------------|
--7------9--10----12----|----------------------------------|
------------------------|--5-7---7---5-7---5-7---5-7---7---|
------------------------|--0-0-0-0-0-0-0-0-0-0-0-0-0-0-0-0-|


                                                                
----------------------------|----------------------------------|
----------------------------|----------------------------------|
----------------------------|----------------------------------|
--4r--------4r------4-4r----|----------------------------------|
--5--5-5--5-5--5--5-5-5--5--|--5-7---7---5-7---5-7---5-7---7---|
----------------------------|--0-0-0-0-0-0-0-0-0-0-0-0-0-0-0-0-|


                                                                
----------------------------|----------------------------------|
----------------------------|----------------------------------|
----------------------------|----------------------------------|
--4r--------4r------4-4r----|--------------5-----------5-------|
--5--5-5--5-5--5--5-5-5--5--|--5-7-----------7-----------7-----|
----------------------------|--0-0-0-0-0-0---0-0-0-0-0---0-0-0-|


                                                                      
----------------------------------|----------------------------------|
----------------------------------|----------------------------------|
----------------------11/12-12-12-|----------------------------------|
--4r--------4r--------------------|--------------5-----------5-------|
--5--5-5--5-5--5--5/9-9/-10-10-10-|--5-7-----------7-----------7-----|
----------------------------------|--0-0-0-0-0-0---0-0-0-0-0---0-0-0-|


                                 D5E5          D5A5 G5A5       
------------------------------|-------------------------------|
------------------------------|-------------------------------|
------------------------------|--7-9-----------7--------------|
--4r--------4r------4-4/5-5/7-|--7-9-----------7-7--5-7-7-7---|
--5--5-5--5-5--5--5-----------|--5-7-----------5-7--5-7-7-7---|
------------------------------|-------0-0--0-0---5--3-5-5-5-0-|


  G5A5            G5 D/G5       D5E5                 D5A5 G5A5       
-----------------------------|--------------------------------------|
-----------------------------|--------------------------------------|
-----------------------------|--7-9--12-12-12-12-12/-7--------------|
--5-7--7-7--7----------------|--7-9--12-12-12-12-12/-7-7--5-7-7-7---|
--5-7--7-7--7---7-5--5-5--5--|--5-7------------------5-7--5-7-7-7---|
--3-5--5-5--5-3-5-3--2-3--3--|-------------------------5--3-5-5-5-0-|


  G5A5                        D5E5          D5A5 G5A5       
---------------------------|-------------------------------|
---------------------------|-------------------------------|
---------------------------|--7-9-----------7--------------|
--5-7---7--7---7-5---x-4---|--7-9-----------7-7--5-7-7-7---|
--5-7---7--7---------------|--5-7-----------5-7--5-7-7-7---|
--3-5---5--5-0-5/3---x-2---|-------0-0--0-0---5--3-5-5-5-0-|


  G5A5            G5 D/G5       D5E5                 D5A5 G5A5       
-----------------------------|--------------------------------------|
-----------------------------|--------------------------------------|
-----------------------------|--7-9--12-12-12-12-12/-7--------------|
--5-7--7-7--7----------------|--7-9--12-12-12-12-12/-7-7--5-7-7-7---|
--5-7--7-7--7---7-5--5-5--5--|--5-7------------------5-7--5-7-7-7---|
--3-5--5-5--5-3-5-3--2-3--3--|-------------------------5--3-5-5-5-0-|


  G5A5                        E5                                    
---------------------------|-------------------|-------------------|
---------------------------|-------------------|-------------------|
---------------------------|-------------------|-------------------|
--5-7---7--7---7-5---x-4---|-------------------|-------------------|
--5-7---7--7---------------|--2----------------|--2----------------|
--3-5---5--5-0-5/3---x-2---|--0----------------|--0----------------|


                                                               
-------------------|-------------------|----------------------|
-------------------|-------------------|----------------------|
-------------------|-------------------|----------------------|
-------------------|-------------------|-------------5--7r--5-|
--2----------------|--2----------------|--7-------------------|
--0----------------|--0----------------|----------------------|


                                                                  
--------------------|----------------------|---------------------|
--------------------|----------------------|---------------------|
--------------------|----------------------|---------------------|
--------------------|-------------5--7r--5-|--7r7b------------7/-|
--7----------7/-----|--7-------------------|---------------------|
--------------------|----------------------|---------------------|


                                             
--------------------------------------------|
--------------------------------------------|
--------------------------------------------|
--------------------------------------------|
--------------------------------------------|
--0-10-12-0-10-12-0-10-12-0-10-12-12b12-10~-|


                                             
--------------------------------------------|
--------------------------------------------|
--------------------------------------------|
--------------------------------------------|
----------------------------------12b12-10~-|
--0-10-12-0-10-12-0-10-12-0-10-12-----------|


                                             
--------------------------------------------|
--------------------------------------------|
--------------------------------------------|
--------------------------------------------|
--------------------------------------------|
--0-10-12-0-10-12-0-10-12-0-10-12-12b12-10~-|


                                                  
-------------------------------------------------|
-------------------------------------------------|
-------------------------------------------------|
-------------------------------------------------|
----------------------------------12b12-10h12h10~|
--0-10-12-0-10-12-0-10-12-0-10-12----------------|


                                            
-------------------------------------------|
-------------------------------------------|
-------------------------------------------|
-------------------------------------------|
-------------------------------------------|
---10-12-0-10-12-0-10-12-0-10-12-12b12-10~-|


                                             
--------------------------------------------|
--------------------------------------------|
--------------------------------------------|
--------------------------------------------|
----------------------------------12b12-10~-|
--0-10-12-0-10-12-0-10-12-0-10-12-----------|


                                             
--------------------------------------------|
--------------------------------------------|
--------------------------------------------|
--------------------------------------------|
--------------------------------------------|
--0-10-12-0-10-12-0-10-12-0-10-12-12b12-10~-|


                                              
---------------------------------------------|
---------------------------------------------|
---------------------------------------------|
---------------------------------------------|
--------------------------10-10b---10-12-10~-|
--0-10-12-0-10-12-0-10-12-------12-----------|


                                                     
----------------------------------------------------|
----------------------------------------------------|
----------------------------------------------------|
----------------------------------------------------|
--------------10b----------------10-12b-12-10h12h10-|
--10-12-12-12----12~-12-12-10-12--------------------|


                                                  
-------------------------------------------------|
-------------------------------------------------|
-------------------------------------------------|
-------------------------------------------------|
--------------10b----------------10-12b-12-10h12-|
--10-12-12-12----12--12-12-10-12-----------------|


                                                     
----------------------------------------------------|
--------------12b-----------------------------------|
--------------12b----------------12-14b-14-12h14h12-|
--12-14-14-14----14~-14-14-12-14--------------------|
----------------------------------------------------|
----------------------------------------------------|


                                                  
-------------------------------------------------|
--------------12b-------------12-12b---12-14-12/-|
--------------12b-------------12-12b---12-14-12/-|
--12-14-14-14----14~-14-14-14-------14-----------|
-------------------------------------------------|
-------------------------------------------------|


                                             
--------------------------------------------|
--------------------------------------------|
--------------------------------------------|
--------------------------------------------|
--------------------------------------------|
--0-10-12-0-10-12-0-10-12-0-10-12-12b12-10~-|


                                                     
----------------------------------------------------|
----------------------------------------------------|
----------------------------------------------------|
----------------------------------------------------|
----------------------------------10h12h10----10-12-|
--0-10-12-0-10-12-0-10-12-0-10-12----------12-------|


                                             
--------------------------------------------|
--------------------------------------------|
--------------------------------------------|
--------------------------------------------|
--------------------------------------------|
--0-10-12-0-10-12-0-10-12-0-10-12-12b12-10~-|


                                                       
------------------------------------------------------|
------------------------------------------------------|
------------------------------------------------------|
------------------------------------------------------|
-----------------------10-12-10b-12-10b12-10b12-10b---|
--0-10-12-0-10-12-0-10-----------------------------12-|


                                             
--------------------------------------------|
--------------------------------------------|
--------------------------------------------|
--------------------------------------------|
--------------------------------------------|
--0-10-12-0-10-12-0-10-12-0-10-12-12b12-10~-|


                                                  
-------------------------------------------------|
-------------------------------------------------|
-------------------------------------------------|
-------------------------------------------------|
----------------------------------12b12b12b12-10~|
--0-10-12-0-10-12-0-10-12-0-10-12----------------|


                                             
--------------------------------------------|
--------------------------------------------|
--------------------------------------------|
--------------------------------------------|
--------------------------------------------|
--0-10-12-0-10-12-0-10-12-0-10-12-12b12-10~-|


                                                       
------------------------------------------------------|
------------------------------------------------------|
------------------------------------------------------|
------------------------------------------------------|
--------------------10-10-10b------------------10-----|
--0-10-12-0-10-12-0----------12-12-12-10-10-10----12/-|


                                                        
-------------------------------------------------------|
-------------------------------------------------------|
--12-12------------------------------------------------|
--12-12-14h12------------------------------------------|
--------------14h12/10b-------------10-12b-12-10h12h10-|
-----------------------12~-12/10-12--------------------|


                                                     
----------------------------------------------------|
----------------------------------------------------|
--12-12---------------------------------------------|
--12-12-14h12---------------------------------------|
--------------14h12/10--------------10-12b-12-10h12~|
-----------------------12--12/10-12-----------------|


                                                              
-------------------------------------------------------------|
--------------12b----------------------12-12-14--14-14-14-12-|
--------------12b----------------------12-12-14--14-14-14-12-|
--12-14-14-14----14~-14-14-12h14-14-14-----------------------|
-------------------------------------------------------------|
-------------------------------------------------------------|


                                                                  
---------------------------12------------------------------------|
--------------12b-------12----12-x-x-12-12----12-12-12-12-12-x-0-|
--------------12b-------12----12-x-x-12-12----12-12-12-12-12-x---|
--12-14-14-14----14--14------------------------------------------|
-----------------------------------------------------------------|
-------------------------------------------12t-------------------|


                                             
--------------------------------------------|
--------------------------------------------|
--------------------------------------------|
--------------------------------------------|
--------------------------------------------|
--0-10-12-0-10-12-0-10-12-0-10-12-12b12-10~-|


                                             
--------------------------------------------|
--------------------------------------------|
--------------------------------------------|
--------------------------------------------|
----------------------------------12b12-10~-|
--0-10-12-0-10-12-0-10-12-0-10-12-----------|


                                             
--------------------------------------------|
--------------------------------------------|
--------------------------------------------|
--------------------------------------------|
--------------------------------------------|
--0-10-12-0-10-12-0-10-12-0-10-12-12b12-10~-|


                                                  
-------------------------------------------------|
-------------------------------------------------|
-------------------------------------------------|
-------------------------------------------------|
----------------------------------12b12-10h12h10~|
--0-10-12-0-10-12-0-10-12-0-10-12----------------|


                                            
-------------------------------------------|
-------------------------------------------|
-------------------------------------------|
-------------------------------------------|
-------------------------------------------|
---10-12-0-10-12-0-10-12-0-10-12-12b12-10~-|


                                             
--------------------------------------------|
--------------------------------------------|
--------------------------------------------|
--------------------------------------------|
----------------------------------12b12-10~-|
--0-10-12-0-10-12-0-10-12-0-10-12-----------|


                                            
-------------------------------------------|
-------------------------------------------|
-------------------------------------------|
-------------------------------------------|
-------------------------------------------|
---10-12-0-10-12-0-10-12-0-10-12-12b12-10~-|


                                              
---------------------------------------------|
---------------------------------------------|
---------------------------------------------|
---------------------------------------------|
--------------------------10-10b---10-12-10~-|
--0-10-12-0-10-12-0-10-12-------12-----------|


                                                     
----------------------------------------------------|
----------------------------------------------------|
----------------------------------------------------|
----------------------------------------------------|
--------------10b----------------10-12b-12-10h12h10-|
--10-12-12-12----12~-12-12-10-12--------------------|


                                                  
-------------------------------------------------|
-------------------------------------------------|
-------------------------------------------------|
-------------------------------------------------|
--------------10b----------------10-12b-12-10h12-|
--10-12-12-12----12--12-12-10-12-----------------|


                                                     
----------------------------------------------------|
--------------12b-----------------------------------|
--------------12b----------------12-14b-14-12h14h12-|
--12-14-14-14----14~-14-14-12-14--------------------|
----------------------------------------------------|
----------------------------------------------------|


                                                                      
-------------------------------------------------|-------------------|
--------------12b-------------12-12b---12-14-12/-|-------------------|
--------------12b-------------12-12b---12-14-12/-|-------------------|
--12-14-14-14----14~-14-14-14-------14-----------|--2----------------|
-------------------------------------------------|--2----------------|
-------------------------------------------------|--0----------------|


                    
------------------||
------------------||
------------------||
------------------||
------------------||
------------------||

**Lead**

D#||-----------------0-|-----------------0-|-----------------0-|
A#||-----------------0-|-----------------0-|-----------------0-|
F#||-----------------0-|-----------------0-|-----------------0-|
C#||-----------------3-|-----------------3-|-----------------3-|
G#||-----------------3-|-----------------3-|-----------------3-|
D#||-----------------0-|-----------------0-|-----------------0-|


                                                                                
-----------------0-|-----------------0-|-----------------0-|-----------------0-|
-----------------0-|-----------------0-|-----------------0-|-----------------0-|
-----------------0-|-----------------0-|-----------------0-|-----------------0-|
-----------------3-|-----------------3-|-----------------3-|-----------------3-|
-----------------3-|-----------------3-|-----------------3-|-----------------3-|
-----------------0-|-----------------0-|-----------------0-|-----------------0-|


                                                        
---------------6----|----------------------------------|
---------------6----|----------------------------------|
--------------------|----------------------------------|
--------------------|----------------------------------|
----------6---------|--5-7---7---5-7---5-7---5-7---7---|
----------6---------|--0-0-0-0-0-0-0-0-0-0-0-0-0-0-0-0-|


                                                                
----------------------------|----------------------------------|
----------------------------|----------------------------------|
----------------------------|----------------------------------|
--4r--------4r------4-4r----|----------------------------------|
--5--5-5--5-5--5--5-5-5--5--|--5-7---7---5-7---5-7---5-7---7---|
----------------------------|--0-0-0-0-0-0-0-0-0-0-0-0-0-0-0-0-|


                                                                
----------------------------|----------------------------------|
----------------------------|----------------------------------|
----------------------------|----------------------------------|
--4r--------4r------4-4r----|----------------------------------|
--5--5-5--5-5--5--5-5-5--5--|--5-7---7---5-7---5-7---5-7---7---|
----------------------------|--0-0-0-0-0-0-0-0-0-0-0-0-0-0-0-0-|


                                                                
----------------------------|----------------------------------|
----------------------------|----------------------------------|
----------------------------|----------------------------------|
--4r--------4r------4-4r----|----------------------------------|
--5--5-5--5-5--5--5-5-5--5--|--5-7---7---5-7---5-7---5-7---7---|
----------------------------|--0-0-0-0-0-0-0-0-0-0-0-0-0-0-0-0-|


                               D5E5                                  
----------------------------|--------------------|------------------|
----------------------------|--------------------|------------------|
----------------------------|--7-9---------------|------------------|
--4r--------4r------4-4r----|--7-9---------------|------------------|
--5--5-5--5-5--5--5-5-5--5--|--5-7---------------|------------------|
----------------------------|----0---------------|------------------|


                                                                            
------------------|------------------|------------------|------------------|
------------------|------------------|------------------|------------------|
------------------|------------------|------------------|------------------|
------------------|------------------|------------------|------------------|
------------------|------------------|------------------|------------------|
------------------|------------------|------------------|------------------|


                                        D5E5                                    
------------------|------------------|---------------------|-------------------|
------------------|------------------|---------------------|-------------------|
------------------|------------------|--7-9-------------9/-|--x----------------|
------------------|------------------|--7-9-------------9/-|--x----------------|
------------------|------------------|--5-7-------------7/-|--x----------------|
------------------|------------------|---------------------|-------------------|


                                                                            
------------------|------------------|------------------|------------------|
------------------|------------------|------------------|------------------|
------------------|------------------|------------------|------------------|
------------------|------------------|------------------|------------------|
------------------|------------------|------------------|------------------|
------------------|------------------|------------------|------------------|


  D5B5                                                                          
---------------------|-------------------|------------------|------------------|
---------------------|-------------------|------------------|------------------|
--7-4-------------4/-|--x----------------|------------------|------------------|
--7-4-------------4/-|--x----------------|------------------|------------------|
--5-2-------------2/-|--x----------------|------------------|------------------|
---------------------|-------------------|------------------|------------------|


                                                                
----------------------------------|----------------------------|
----------------------------------|----------------------------|
----------------------------------|----------------------------|
----------------------------------|--4r--------4r------4-4r----|
--5-7---7---5-7---5-7---5-7---7---|--5--5-5--5-5--5--5-5-5--5--|
--0-0-0-0-0-0-0-0-0-0-0-0-0-0-0-0-|----------------------------|


                                                                
----------------------------------|----------------------------|
----------------------------------|----------------------------|
----------------------------------|----------------------------|
----------------------------------|--4r--------4r------4-4r----|
--5-7---7---5-7---5-7---5-7---7---|--5--5-5--5-5--5--5-5-5--5--|
--0-0-0-0-0-0-0-0-0-0-0-0-0-0-0-0-|----------------------------|


                                                                     
----------------------------------|---------------------------------|
----------------------------------|---------------------------------|
----------------------------------|------------------7/9-9/12-12/11-|
----------------------------------|--4r--------4r-------------------|
--5-7---7---5-7---5-7---5-7---7---|--5--5-5--5-5--5--5/7-7/10-10/9--|
--0-0-0-0-0-0-0-0-0-0-0-0-0-0-0-0-|---------------------------------|


                                                                     
----------------------------------|---------------------------------|
----------------------------------|---------------------------------|
----------------------------------|------------------7/9-9/12-12/11-|
----------------------------------|--4r--------4r-------------------|
--5-7---7---5-7---5-7---5-7---7---|--5--5-5--5-5--5--5/7-7/10-10/9--|
--0-0-0-0-0-0-0-0-0-0-0-0-0-0-0-0-|---------------------------------|


  E5 tp2                                                                     
-------------------|------------------|------------------|------------------|
-------------------|------------------|------------------|------------------|
--9----------------|------------------|------------------|------------------|
--9----------------|------------------|------------------|------------------|
--7----------------|------------------|------------------|------------------|
--0----------------|------------------|------------------|------------------|


                                                                            
------------------|------------------|------------------|------------------|
------------------|------------------|------------------|------------------|
------------------|------------------|------------------|------------------|
------------------|------------------|------------------|------------------|
------------------|------------------|------------------|------------------|
------------------|------------------|------------------|------------------|


  D5E5                                                                        
--------------------|------------------|------------------|------------------|
--------------------|------------------|------------------|------------------|
--7-9---------------|------------------|------------------|------------------|
--7-9---------------|------------------|------------------|------------------|
--5-7---------------|------------------|------------------|------------------|
--------------------|------------------|------------------|------------------|


                                        D5B5                   B5               
------------------|------------------|--------------------|--------------------|
------------------|------------------|--------------------|--------------------|
------------------|------------------|--7-4---------------|----4---------------|
------------------|------------------|--7-4---------------|----4---------------|
------------------|------------------|--5-2---------------|--0-2---------------|
------------------|------------------|--------------------|--------------------|


  B5A5                   A5                                                  
--------------------|--------------------|----------------------------------|
--------------------|--------------------|----------------------------------|
--4-2---------------|----2---------------|----------------------------------|
--4-2---------------|----2---------------|----------------------------------|
--2-0---------------|----0---------------|--5-7---7---5-7---5-7---5-7---7---|
--------------------|--3-----------------|--0-0-0-0-0-0-0-0-0-0-0-0-0-0-0-0-|


                                                                
----------------------------|----------------------------------|
----------------------------|----------------------------------|
----------------------------|----------------------------------|
--4r--------4r------4-4r----|----------------------------------|
--5--5-5--5-5--5--5-5-5--5--|--5-7---7---5-7---5-7---5-7---7---|
----------------------------|--0-0-0-0-0-0-0-0-0-0-0-0-0-0-0-0-|


                                                                
----------------------------|----------------------------------|
----------------------------|----------------------------------|
----------------------------|----------------------------------|
--4r--------4r------4-4r----|--------------5-----------5-------|
--5--5-5--5-5--5--5-5-5--5--|--5-7-----------7-----------7-----|
----------------------------|--0-0-0-0-0-0---0-0-0-0-0---0-0-0-|


                                                                
----------------------------|----------------------------------|
----------------------------|----------------------------------|
----------------------------|----------------------------------|
--4r--------4r------4-4r----|--------------5-----------5-------|
--5--5-5--5-5--5--5-5-5--5--|--5-7-----------7-----------7-----|
----------------------------|--0-0-0-0-0-0---0-0-0-0-0---0-0-0-|


                               D5E5          D5A5 G5A5       
----------------------------|-------------------------------|
----------------------------|-------------------------------|
----------------------------|--7-9-----------7--------------|
--4r--------4r------4-4r----|--7-9-----------7-7--5-7-7-7---|
--5--5-5--5-5--5--5-5-5--5--|--5-7-----------5-7--5-7-7-7---|
----------------------------|-------0-0--0-0---5--3-5-5-5-0-|


  G5A5            G5 D/G5       D5E5          D5A5 G5A5       
-----------------------------|-------------------------------|
-----------------------------|-------------------------------|
-----------------------------|--7-9-----------7--------------|
--5-7--7-7--7----------------|--7-9-----------7-7--5-7-7-7---|
--5-7--7-7--7---7-5--5-5--5--|--5-7-----------5-7--5-7-7-7---|
--3-5--5-5--5-3-5-3--2-3--3--|-------0-0--0-0---5--3-5-5-5-0-|


  G5A5                         D5E5          D5A5 G5A5       
----------------------------|-------------------------------|
----------------------------|-------------------------------|
----------------9/7---7-8---|--7-9-----------7--------------|
--5-7-7-7-7--7--------------|--7-9-----------7-7--5-7-7-7---|
--5-7-7-7-7--7--7/5---5-6---|--5-7-----------5-7--5-7-7-7---|
--3-5-5-5-5--5--------------|-------0-0--0-0---5--3-5-5-5-0-|


  G5A5            G5 D/G5       D5E5          D5A5 G5A5       
-----------------------------|-------------------------------|
-----------------------------|-------------------------------|
-----------------------------|--7-9-----------7--------------|
--5-7--7-7--7----------------|--7-9-----------7-7--5-7-7-7---|
--5-7--7-7--7---7-5--5-5--5--|--5-7-----------5-7--5-7-7-7---|
--3-5--5-5--5-3-5-3--2-3--3--|-------0-0--0-0---5--3-5-5-5-0-|


  G5A5                         E5                                   
----------------------------|-------------------|
----------------------------|-------------------|
----------------9/7---7-8---|-------------------|
--5-7-7-7-7--7--------------|-------------------|
--5-7-7-7-7--7--7/5---5-6---|--2----------------|
--3-5-5-5-5--5--------------|--0----------------|


Guitar Solo
--------------------------------------------------------------------------------
--------12-12-12-12-12-12-12-12-12-12-12-12-12-12-12-12-12-12-12-12-12-12-12-12-
--12-12-12-12-12-12-12-12-12-12-12-12-12-12-12-12-12-12-12-12-12-12-12-12-12-12-
--12-12-12-12-12-12-12-12-12-12-12-12-12-12-12-12-12-12-12-12-12-12-12-12-12-12-
--------------------------------------------------------------------------------
--------------------------------------------------------------------------------


                                                                    
----------------------------------|--------------------------------|
--12---12---12--12-12-12----14b---|----------------------------14b-|
--12---12---12--12-12-12-14-14b---|------14--14b14--14b14b-14--14b-|
----------------------------------|--------------------------------|
----------------------------------|--------------------------------|
----------------------------------|--------------------------------|


                                                                        
------------------------------|--27-----24-24/--------------17/--------|
------------------------------|-----24/-------20/-18/17-17-----14/-12/-|
--12--------------------------|----------------------------------------|
-----14~--14~---14~-14~-14~---|----------------------------------------|
------------------------------|----------------------------------------|
------------------------------|----------------------------------------|


                           
--------10/---------------|
--10--------8/-29---------|
---------------------0----|
---------------------0----|
--------------------------|
--------------------------|


                                                                   
--------------------------------------0h14h17~0h14h17~------14h17~|
------------------------------------------------------15h17~------|
--------------12h14~------------12h14~----------------------------|
--------12h14-------------12h14-----------------------------------|
--12h14-------------12h14-----------------------------------------|
------------------------------------------------------------------|


                                                                        
--------17b17~-17b17b-17~-17b-17r17/19-19r19/22-|--22b---22/-----------|
--15h17-----------------------------------------|----------------------|
------------------------------------------------|----------------------|
------------------------------------------------|----------------------|
------------------------------------------------|----------------------|
------------------------------------------------|----------------------|


   D5E5          D5A5 G5A5       
|-------------------------------|
|-------------------------------|
|--7-9-----------7--------------|
|--7-9-----------7-7--5-7-7-7---|
|--5-7-----------5-7--5-7-7-7---|
|-------0-0--0-0---5--3-5-5-5-0-|


  G5A5            G5 D/G5       D5E5          D5A5 G5A5       
-----------------------------|-------------------------------|
-----------------------------|-------------------------------|
-----------------------------|--7-9-----------7--------------|
--5-7--7-7--7----------------|--7-9-----------7-7--5-7-7-7---|
--5-7--7-7--7---7-5--5-5--5--|--5-7-----------5-7--5-7-7-7---|
--3-5--5-5--5-3-5-3--2-3--3--|-------0-0--0-0---5--3-5-5-5-0-|


  G5A5                         D5E5          D5A5 G5A5       
----------------------------|-------------------------------|
----------------------------|-------------------------------|
----------------9/7---7-8---|--7-9-----------7--------------|
--5-7-7-7-7--7--------------|--7-9-----------7-7--5-7-7-7---|
--5-7-7-7-7--7--7/5---5-6---|--5-7-----------5-7--5-7-7-7---|
--3-5-5-5-5--5--------------|-------0-0--0-0---5--3-5-5-5-0-|


  G5A5            G5 D/G5       D5E5          D5A5 G5A5       
-----------------------------|-------------------------------|
-----------------------------|-------------------------------|
-----------------------------|--7-9-----------7--------------|
--5-7--7-7--7----------------|--7-9-----------7-7--5-7-7-7---|
--5-7--7-7--7---7-5--5-5--5--|--5-7-----------5-7--5-7-7-7---|
--3-5--5-5--5-3-5-3--2-3--3--|-------0-0--0-0---5--3-5-5-5-0-|


  G5A5                         E5                                    
----------------------------|--x----------------|--x----------------|
----------------------------|--x----------------|--x----------------|
----------------9/7---7-8---|--x----------------|--x----------------|
--5-7-7-7-7--7--------------|--x----------------|--x----------------|
--5-7-7-7-7--7--7/5---5-6---|--2----------------|--2----------------|
--3-5-5-5-5--5--------------|--0----------------|--0----------------|


                                                                                
--x----------------|--x----------------|--x----------------|--x----------------|
--x----------------|--x----------------|--x----------------|--x----------------|
--x----------------|--x----------------|--x----------------|--x----------------|
--x----------------|--x----------------|--x----------------|--x----------------|
--2----------------|--2----------------|--2----------------|--2----------------|
--0----------------|--0----------------|--0----------------|--0----------------|


                                                                                
--x----------------|--x----------------|--x----------------|--x----------------|
--x----------------|--x----------------|--x----------------|--x----------------|
--x----------------|--x----------------|--x----------------|--x----------------|
--x----------------|--x----------------|--x----------------|--x----------------|
--2----------------|--2----------------|--2----------------|--2----------------|
--0----------------|--0----------------|--0----------------|--0----------------|


                                          E5       F5        
--x----------------|--x----------------|--------------------|
--x----------------|--x----------------|--------------------|
--x----------------|--x----------------|--------------------|
--x----------------|--x----------------|-----------3--------|
--2----------------|--2----------------|--2--------3--------|
--0----------------|--0----------------|--0--------1--------|


  F#5      G5          E5       F5          F#5      G5        
--------------------|--------------------|--------------------|
--------------------|--------------------|--------------------|
--------------------|--------------------|--------------------|
--4--------5--------|-----------3--------|--4--------5--------|
--4--------5--------|--2--------3--------|--4--------5--------|
--2--------3--------|--0--------1--------|--2--------3--------|


  E5       F5          F#5      G5          E5       F5        
--------------------|--------------------|--------------------|
--------------------|--------------------|--------------------|
--------------------|--------------------|--------------------|
-----------3--------|--4--------5--------|-----------3--------|
--2--------3--------|--4--------5--------|--2--------3--------|
--0--------1--------|--2--------3--------|--0--------1--------|


  F#5      G5          E5            F5             
--------------------|------------------------------|
--------------------|------------------------------|
--------------------|------------------------------|
--4--------5--------|----------------3-3-3--3-3--3-|
--4--------5--------|--2-2-2--2-2--2-3-3-3--3-3--3-|
--2--------3--------|--0-0-0--0-0--0-1-1-1--1-1--1-|


  F#5           G5               E5            F5             
------------------------------|------------------------------|
------------------------------|------------------------------|
------------------------------|------------------------------|
--4-4-4--4-4--4-5-5-5--5-5--5-|----------------3-3-3--3-3--3-|
--4-4-4--4-4--4-5-5-5--5-5--5-|--2-2-2--2-2--2-3-3-3--3-3--3-|
--2-2-2--2-2--2-3-3-3--3-3--3-|--0-0-0--0-0--0-1-1-1--1-1--1-|


  F#5      G5          E5            F5             
--------------------|------------------------------|
--------------------|------------------------------|
--------------------|------------------------------|
--4--------5--------|----------------3-3-3--3-3--3-|
--4--------5--------|--2-2-2--2-2--2-3-3-3--3-3--3-|
--2--------3--------|--0-0-0--0-0--0-1-1-1--1-1--1-|


  F#5           G5               E5            F5             
------------------------------|------------------------------|
------------------------------|------------------------------|
------------------------------|------------------------------|
--4-4-4--4-4--4-5-5-5--5-5--5-|----------------3-3-3--3-3--3-|
--4-4-4--4-4--4-5-5-5--5-5--5-|--2-2-2--2-2--2-3-3-3--3-3--3-|
--2-2-2--2-2--2-3-3-3--3-3--3-|--0-0-0--0-0--0-1-1-1--1-1--1-|


  F#5           G5                 E5            F5               
--------------------------------|--------------------------------|
--------------------------------|--------------------------------|
--------------------------------|--------------------------------|
--4--4--4-4-4-4-5-5-5-5-5-5-5-5-|----------------3-3-3-3-3-3-3-3-|
--4--4--4-4-4-4-5-5-5-5-5-5-5-5-|--2--2--2-2-2-2-3-3-3-3-3-3-3-3-|
--2--2--2-2-2-2-3-3-3-3-3-3-3-3-|--0--0--0-0-0-0-1-1-1-1-1-1-1-1-|


  F#5           G5                 E5            F5               
--------------------------------|--------------------------------|
--------------------------------|--------------------------------|
--------------------------------|--------------------------------|
--4--4--4-4-4-4-5-5-5-5-5-5-5-5-|----------------3-3-3-3-3-3-3-3-|
--4--4--4-4-4-4-5-5-5-5-5-5-5-5-|--2--2--2-2-2-2-3-3-3-3-3-3-3-3-|
--2--2--2-2-2-2-3-3-3-3-3-3-3-3-|--0--0--0-0-0-0-1-1-1-1-1-1-1-1-|


  F#5           G5                 E5            F5               
--------------------------------|--------------------------------|
--------------------------------|--------------------------------|
--------------------------------|--------------------------------|
--4--4--4-4-4-4-5-5-5-5-5-5-5-5-|----------------3-3-3-3-3-3-3-3-|
--4--4--4-4-4-4-5-5-5-5-5-5-5-5-|--2--2--2-2-2-2-3-3-3-3-3-3-3-3-|
--2--2--2-2-2-2-3-3-3-3-3-3-3-3-|--0--0--0-0-0-0-1-1-1-1-1-1-1-1-|


  F#5           G5                 E5            F5               
--------------------------------|--------------------------------|
--------------------------------|--------------------------------|
--------------------------------|--------------------------------|
--4--4--4-4-4-4-5-5-5-5-5-5-5-5-|----------------3-3-3-3-3-3-3-3-|
--4--4--4-4-4-4-5-5-5-5-5-5-5-5-|--2--2--2-2-2-2-3-3-3-3-3-3-3-3-|
--2--2--2-2-2-2-3-3-3-3-3-3-3-3-|--0--0--0-0-0-0-1-1-1-1-1-1-1-1-|


  F#5           G5                 E5            F5             
--------------------------------|------------------------------|
--------------------------------|------------------------------|
--------------------------------|------------------------------|
--4--4--4-4-4-4-5-5-5-5-5-5-5-5-|----------------3-3-3--3-3--3-|
--4--4--4-4-4-4-5-5-5-5-5-5-5-5-|--2-2-2--2-2--2-3-3-3--3-3--3-|
--2--2--2-2-2-2-3-3-3-3-3-3-3-3-|--0-0-0--0-0--0-1-1-1--1-1--1-|


  F#5           G5               E5            F5             
------------------------------|------------------------------|
------------------------------|------------------------------|
------------------------------|------------------------------|
--4-4-4--4-4--4-5-5-5--5-5--5-|----------------3-3-3--3-3--3-|
--4-4-4--4-4--4-5-5-5--5-5--5-|--2-2-2--2-2--2-3-3-3--3-3--3-|
--2-2-2--2-2--2-3-3-3--3-3--3-|--0-0-0--0-0--0-1-1-1--1-1--1-|


  F#5           G5               E5            F5               
------------------------------|--------------------------------|
------------------------------|--------------------------------|
------------------------------|--------------------------------|
--4-4-4--4-4--4-5-5-5--5-5--5-|----------------3-3-3-3-3-3-3-3-|
--4-4-4--4-4--4-5-5-5--5-5--5-|--2--2--2-2-2-2-3-3-3-3-3-3-3-3-|
--2-2-2--2-2--2-3-3-3--3-3--3-|--0--0--0-0-0-0-1-1-1-1-1-1-1-1-|


  F#5           G5                 E5            F5               
--------------------------------|--------------------------------|
--------------------------------|--------------------------------|
--------------------------------|--------------------------------|
--4--4--4-4-4-4-5-5-5-5-5-5-5-5-|----------------3-3-3-3-3-3-3-3-|
--4--4--4-4-4-4-5-5-5-5-5-5-5-5-|--2--2--2-2-2-2-3-3-3-3-3-3-3-3-|
--2--2--2-2-2-2-3-3-3-3-3-3-3-3-|--0--0--0-0-0-0-1-1-1-1-1-1-1-1-|


  F#5           G5                                                       
--------------------------------|-------------------|------------------||
--------------------------------|-------------------|------------------||
--------------------------------|-------------------|------------------||
--4--4--4-4-4-4-5-5-5-5-5-5-5-5-|--2----------------|------------------||
--4--4--4-4-4-4-5-5-5-5-5-5-5-5-|--2----------------|------------------||
--2--2--2-2-2-2-3-3-3-3-3-3-3-3-|--0----------------|------------------||
8 comments total. Showing first comments.
0 reply
undecided_gtr wrote on May 13 2004, 12:00 am

WRONG

0 reply
forwhomthebells wrote on January 28 2006, 10:33 am

also how can u have 27 frets?

-2 reply
Cthulhu_Calls wrote on December 29 2006, 01:23 pm

tuning is Eb Ab Db Gb Bb eb not D# G# C# F# A# D#
intro is:
eb||--0-------------------------------|
Bb||o-0------------------------------o|
Gb||--0-------------------------------|
Db||--3-2---3-3---3-3---3-3---3---3---|
Ab||o-3-1---3-3---3-3---3-3---3---3--o|
Eb||--0-0---0-0---0-0---0-0---0---0---|
solo is wrong, the most frets u can get on a guitar is 25 n they on certain BC Rich models and Kirk uses ESPs with 24 he uses a combination of a wah wah and an octave pedal to make it sound that high

I want to post or [tab]
guest
You may want to rate the tab now too:
select rating
Please do not post tabs as comments. Select "correction" instead!