Oops, an error
Loading. Please wait.

The Prince Tab

ver2
ver2

Whole song

More versions @911Tabs.com
4,932 views 1 this week
no commentswrite comment
1 2 3 4 5
excellent!
x 4
Autoscroll
+/-
esc
set tempo
stop
Contributor
WARNING: You are trying to view
                                    content from Ultimate-Guitar.com
                                    in an unauthorized application,
                                    which is prohibited.

                                    Please use an official Ultimate
                                    Guitar Tabs application for iPhone,
                                    iPad or Android to access legitimate
                                    chords, guitar, bass, and drum tabs
                                    from Ultimate-Guitar.com database.

                                    Type "ultimate guitar tabs" in Apple
                                    App Store's or Android Market's
                                    search to find the application.
Band- Metallica
Song- The Prince

A5   x 0 2 2 x x        
F5   x 8 10 10 x x      
D5   x 5 7 7 x x        
C5   x 3 5 5 x x
F5I  1 3 3 x x x        
C#5  x 4 6 6 x x        
E5   0 2 2 x x x

Gtr I (E A D G B E) - 'James Hetfield - Rhythm w/dist'
Gtr II (E A D G B E) - 'Kirk Hammett - Rhythm w/dist'
Gtr III (E A D G B E) - 'Kirk Hammett - Rhythm / Lead w/dist'
Gtr IV (E A D G B E) - 'James Hetfield - Lead w/dist'

Intro
  Double Time feel Q=167
 4/4
  Gtrs I, II
                   PM--------------|          PM----------------|
  W            S S S S +S  S E S S E Q    S S S S +S  S S S S S E E E   4x
|----------||---------------------------|-------------------------------||
|----------||o--------------------------|------------------------------o||
|----------||------------------------5--|-------------------------5-7---||
|----------||------------------------5--|-------------------------5-7---||
|----------||o-----------------------3--|-------------------------3-5--o||
|----------||--3h5-5-5-(5)-5-5-5-3-0----|-3h5-5-5-(5)-5-5-5-5-3-0-------||
            |-Rhy Fig 1                                   end Rhy Fig 1-|

w/Rhy Fig 1 x2
  Gtr III
  W                          W
|--------------------------|-----------------------------|
|-5------------------------|-7---------------------------|
|-5------------------------|-7---------------------------|
|-5------------------------|-7---------------------------|
|-3------------------------|-5---------------------------|
|--------------------------|-----------------------------|


  W                          W
|--------------------------|-----------------------------||
|-8------------------------|-9---------------------------||
|-8------------------------|-9---------------------------||
|-8------------------------|-9---------------------------||
|-6------------------------|-7---------------------------||
|--------------------------|-----------------------------||


 Guitar Solo
w/Rhy Fig 1 x7
   E.        S      +E      E      +S   +S   E     E  E
|-22b24-----22b24==(22)r---22b24==(22)r(22)-22b24-22-22-|
|-------------------------------------------------------|
|-------------------------------------------------------|
|-------------------------------------------------------|
|-------------------------------------------------------|
|-------------------------------------------------------|


  S S S S  S  S S S S S S S E +E
|-----------------------------------|
|----------5------------------------|
|-5-5-7p5-----5-7p5-7p5-------------|
|-----------------------7-5-7-(7)/--|
|-----------------------------------|
|-----------------------------------|


    S     S  S  S  s   S  S  S  S  S  S  S  S  S  S  S
|-----------------17-----------------------17----------|
|--------17-20p17-----17-20p17----17-20p17----17-20p17-|
|-/19b21-----------------------19----------------------|
|------------------------------------------------------|
|------------------------------------------------------|
|------------------------------------------------------|


   S  S  S  S  S     S  S  S  S  S  S  S  Q
|-------------------------------------------------|
|----17-20p17-17----17-20p17-20p17----17----------|
|-19----------19b21----------------19----19b21----|
|-------------------------------------------------|
|-------------------------------------------------|
|-------------------------------------------------|


  |------6------|  |-----6------| |-----6-----| |-3-|
  S S   S S S   S  S  S   S S S S S S   S S S S S S S T T T T
|---------5h7h==9-----------5h7h9p5-------5h7h9-------5h7h9-5-|
|-5h7h==9----------5h=7h==9---------7h==9-------5h7h9---------|
|-------------------------------------------------------------|
|-------------------------------------------------------------|
|-------------------------------------------------------------|
|-------------------------------------------------------------|


  |------6------|  |--3---|
  S S   S S S   S  S  S   S S S S S E E E
|-9p7p==5-9p7p==5---------------5---------|
|------------------9p=7p==5-9p5---5-----5-|
|-----------------------------------7-7---|
|-----------------------------------------|
|-----------------------------------------|
|-----------------------------------------|


                                          PM--|
  |------6------|
  S S   S S S   S  S  S T S T S S S T T S S S S
|-----------------------------------------------|
|-8p6p==5---------------------------------------|
|---------7p5p==4-------------------------------|
|------------------7p=5-------------5h7p5-------|
|-----------------------8p7p5-------------7-6-5-|
|-----------------------------8p7p5-------------|


                        ~~
  S S T T S +S  S  E    Q.       S S
|------------------------------------|
|----------------------------------5-|
|-----------------[5]---2------------|
|------------------------------------|
|-4-3-5p3-------3----------------0---|
|---------5-(5)----------------------|


                                    |--3--|
  E     S S    +S   S E   S E     S E   E E
|-------------------------5-----------------|
|-5-----5-5----(5)--5-5---5-5-----5-5---5-8-|
|-7b9-----7b9==(7)r---7b9---7b9-----7b9-----|
|-------------------------------------------|
|-------------------------------------------|
|-------------------------------------------|


  |--3--|
  S S   S S S  S  S S S S S E E.    S
|---------------------------8-5----12-|
|-5h8p==5---5--8p=5---5-8p5---5-------|
|---------x---------x-----------------|
|-------------------------------------|
|-------------------------------------|
|-------------------------------------|


   S  S  S  S  S   S  S  S  S  S  S  S  S  E S
|-15p12----17p12-----15p12----17p12----15p12S5-|
|-------12--------12-------12-------12-------5-|
|----------------------------------------------|
|----------------------------------------------|
|----------------------------------------------|
|----------------------------------------------|


      |--3--|       |--3--|     |-3-|
  S S S S   S  S  S S S   S S S S S S S S S  S
|-8p5-------5h=8p=5-------5h8p5-----5h8p5------|
|-----8p5-----------8p5---------8p5-------8s12-|
|----------------------------------------------|
|----------------------------------------------|
|----------------------------------------------|
|----------------------------------------------|


   S  S  S  S  S   S  S  S  S  S  S  S  S  S  E
|-15p12----17p12-----15p12----17p12----15p12-12S=|
|-------12--------12-------12-------12-------12--|
|------------------------------------------------|
|------------------------------------------------|
|------------------------------------------------|
|------------------------------------------------|


      T        T         T        T        T
   S  T  T  S  T  T  S   T  T  S  T  T  S  T  T  S  S  S  E.
|-17-22p20p17-22p20p17--22p20p17-22p20p17-22p20p17----17-17------||
|--------------------------------------------------20----20b22---||
|----------------------------------------------------------------||
|----------------------------------------------------------------||
|----------------------------------------------------------------||
|----------------------------------------------------------------||


    Gtrs I, II
        PM--------------|          PM----------------|
    S S S S +S  S E S S E Q    S S S S +S  S S S S S E E E  4x
||---------------------------|------------------------------||
||o--------------------------|-----------------------------o||
||------------------------5--|-------------------------5-7--||
||------------------------5--|-------------------------5-7--||
||o-----------------------3--|-------------------------3-5-o||
||--3h5-5-5-(5)-5-5-5-3-0----|-3h5-5-5-(5)-5-5-5-5-3-0------||


  Gtr I
                PM|   PM                PM--|
  E S S E E +E  S S E E   E S S E E +E  S S E E
|-----------------------|-----------------------|
|-----------------------|-----------------------|
|-------------------5---|-7---7---5-(5)---------|
|-7---7---7-(7)-----5---|-7---7---5-(5)-------5-|
|-0---0---0-(0)-5-7---7-|---------------7-5-7---|
|-----------------------|-----------------------|
|-Rhy Fig 2
|
| Gtr II
| E E   Q    H            W
|-----------------------|-----------------------|
|-7---------------------|-----------------------|
|-7---------------------|-----------------------|
|-7---------------------|-----------------------|
|-5---------------------|-----------------------|
|-----------------------|-----------------------|


                PM|   PM
  E S S E E +E  S S E E   E S S E E +E  S S S E.
|-----------------------|-------------------------|
|-----------------------|-------------------------|
|-------------------5---|-7---7---5-(5)-------5b6-|
|-7---7---7-(7)-----5---|-7---7---5-(5)-----------|
|-0---0---0-(0)-5-7---7-|---------------7p5h7-----|
|-----------------------|-------------------------|
                                    end Rhy Fig 2-|

  Gtrs I, II
  Rhy Fig 2


   Verses
    $
||--
||o-
||-- Rhy Fig 2 x1.5
||--
||o-
||--


                PM|   PM
  E S S E E +E  S S E E   E S S E E +E  E   +E  E
|-----------------------|---------------------------|
|-----------------------|---------------------------|
|-5---5---5-(5)-----5---|-7---7---5-(5)-7b8r(7)-5---|
|-7---7---7-(7)-----5---|-7---7---5-(5)-7b8r(7)-5---|
|-0---0---0-(0)-5-7---7-|---------------------------|
|-----------------------|---------------------------|
                        |-Rhy Fill 1             ---|

Rhy Fig 2 x1.5
Rhy Fill 1



 Chorus
  A5             F5             D5
  Gtrs I, II
  E Q.   +H      E Q.   +H      W
  | |     |      | |     |      |
  / /     /      / /     /      /
|--------------|--------------|------|


 9/8                        4/4
  Gtrs I, II
  PM|    PM--|
  S E. E S S E E S S S S E   W          W
|--------------------------|----------|------|
|--------------------------|----------|------|
|------5-------5-7-7-7-7---|-2--------|------|
|------5-------5-7-7-7-7---|-2--------|-3----|
|-5-3--3-5-3-3-3-5-5-5-5---|-0--------|-3----|
|--------------------------|----------|-1----|


                                                        To Coda
            9/8
             PM|    PM--|               PM|    PM--|
  W          S E. E S S E E S S S S E   S E. E S S E E S S S S E
|----------|--------------------------|--------------------------|
|----------|--------------------------|--------------------------|
|-7--------|------5-------5-7-7-7-7---|------5-------5-7-7-7-7---|
|-7--------|------5-------5-7-7-7-7---|------5-------5-7-7-7-7---|
|-5--------|-5-3--3-5-3-3-3-5-5-5-5---|-5-3--3-5-3-3-3-5-5-5-5---|
|----------|--------------------------|--------------------------|


            1.
 4/4
                           PM|   PM                PM--|
  W          E S S E E +E  S S E E   E S S E E +E  S S E E
|----------|-----------------------|-----------------------|
|----------|-----------------------|-----------------------|
|----------|-------------------5---|-7---7---5-(5)-------5-|
|----------|-7---7---7-(7)-----5---|-7---7---5-(5)-------5-|
|----------|-0---0---0-(0)-5-7---7-|---------------7-5-7---|
|----------|-----------------------|-----------------------|


                PM|   PM
  E S S E E +E  S S E E   E S S +E  E E E Q
|-----------------------|-----------------------||
|-----------------------|----------------------o||
|-5---5---5-(5)-----5---|-7---7-(7)-6-5---------||
|-7---7---7-(7)-----5---|-7---7-(7)-6-5---------||
|-0---0---0-(0)-5-7---7-|-5---5-(5)-4-3--------o||
|-----------------------|-----------------------||


    2.
    Rhy Fig 2 x2

        PM------|       PM------|         PM------|
    S S S S +S  S E S S S S +S  S E   S S S S +S  S E Q  Q   4x
||----------------------------------|------------------------||
||o---------------------------------|-----------------------o||
||----------------9---------------7-|---------------9-7--5---||
||----------------7---------------5-|---------------7-7--5---||
||o---------------------------------|-----------------5--3--o||
||--3s5-5-5-(5)-5---3s5-5-5-(5)-5---|-3s5-5-5-(5)-5----------||


  A5
  Gtr II
  Q     Q    H            W
  |
  /

  Gtr I
                PM|   PM                      PM--|
  e S s E E +E  S S E E   e S s E E      +E   E S S E
|-----------------------|-----------------------------|
|-----------------------|-----------------------------|
|-----------------------|-7---7---5b5.5==(5)r---------|
|-7---7---7-(7)-----5---|---------------------------5-|
|---------------5-7---7-|---------------------7-5-7---|
|-----------------------|-----------------------------|
|-Riff A

                PM|   PM        PM--------|
  e S s E E +E  S S E E   a E E E E E E E E
|-----------------------|-------------------|
|-----------------------|-------------------|
|-----------------------|-------------------|
|-7---7---7-(7)-----5---|-5h7-5-------------|
|---------------5-7---7-|-------7-6-5-------|
|-----------------------|-------------8-7-6-|
                                 end Riff A-|

  Gtrs I, II
  Riff A


w/Riff A
  Gtr II
                PM|   PM                      PM--|
  e S s E E +E  S S E E   E S S E E      +E   E S S E
|-----------------------|-----------------------------|
|-----------------------|-----------------------------|
|-5---5-----------------|-7---7---5------(5)----------|
|---------7-(7)-----5---|---------------------------5-|
|---------------5-7---7-|---------------------7-5-7---|
|-----------------------|-----------------------------|


                PM|   PM
  e S s E E +E  S S E E   a E a E E E E E E E
|-----------------------|----------------------||
|-----------------------|----------------------||
|-5---5-----------------|----------------------||
|---------7-(7)-----5---|-5h7-5h7--------------||
|---------------5-7---7-|---------7-6-5--------||
|-----------------------|---------------8-7-6--||


    A5           F5I
    Gtrs I, II
    W            W
    |            |
    /            /

    Gtr III
    ~            ~
    H    Q  Q    H    Q  Q
||-------------|------------|
||o------------|------------|
||-------4--5--|------4--5--|
||--7----------|-3----------|
||o------------|------------|
||-------------|------------|


              1.                2.
  C5           E5                E5
  W            W                 W
  |            |                 |
  /            /                 /

                                Gtrs III, IV
  ~            ~                 ~
  H    Q  Q    H    a Q  Q       H    a Q  Q
|------------|---------------||---------------||
|------------|--------------o||-------3h5--3--||
|------------|------4h5--4---||-------4h5--4--||
|------------|---------------||---------------||
|-3----5--6--|-7------------o||--7------------||
|------------|---------------||---------------||
                                 H    a Q  Q


    A5           F5I          C5
    W            W            W
    |            |            |
    /            /            /

    ~~           ~~           ~~
    H    Q  Q    H    Q  Q    H    Q  Q
||-------------|------------|------------|
||o------3--5--|------3--5--|------------|
||--5----4--5--|-2----4--5--|------------|
||--7----------|-3----------|-2----4--5--|
||o------------|------------|-3----5--6--|
||-------------|------------|------------|
    H    Q  Q    H    Q  Q    H    Q  Q


  E5
  W                W
  |
  /

               Gtrs I, II
  ~~               PM----------------------|
  H    a Q  Q      S E S E S S +S  S E S S E
|---------------||---------------------------|
|------3h5--3--o||---------------------------|
|------4h5--4---||---------------------------|
|-6-------------||-7-7-----5-5-(5)-----------|
|-7------------o||-----5-5---------3-3-7-7-7-|
|---------------||---------------------------|
  H    a Q  Q


  Gtr I
                 PM|   PM                PM--|
  E S S E E +E   S S E E   E S S E E +E  S S E E
|------------------------|-----------------------|
|------------------------|-----------------------|
|--------------------5---|-7---7---5-(5)-------5-|
|-7---7---7-(7)------5---|-7---7---5-(5)-------5-|
|-0---0---0-(0)--5-7---7-|---------------7-5-7---|
|------------------------|-----------------------|
|
| Gtr II
| E S S E E +Q       Q     W
|------------------------|-----------------------|
|------------------------|-----------------------|
|------------------------|-----------------------|
|-7---7---7-(7)\---------|-----------------------|
|-7---7---7-(7)\---------|-----------------------|
|-5---5---5-(5)\---------|-----------------------|


                 PM|   PM
  E S S E E +E   S S E E   E S S E E +E  S S S E.
|------------------------|--------------------------|
|------------------------|--------------------------|
|--------------------5---|-7---7---5-(5)-------5b6--|
|-7---7---7-(7)------5---|-7---7---5-(5)------------|
|-0---0---0-(0)--5-7---7-|---------------7p5h7------|
|------------------------|--------------------------|
|
| E S S E E +Q       Q     W
|------------------------|--------------------------|
|------------------------|--------------------------|
|------------------------|--------------------------|
|-7---7---7-(7)\---------|--------------------------|
|-7---7---7-(7)\---------|--------------------------|
|-5---5---5-(5)\---------|--------------------------|


  Gtrs I, II
 Rhy Fig 2 (1st 2 bars only)


                                  D.S. al Coda
                PM|   PM
  E S S E E +E  S S E E   E S S +E  E E E Q
|-----------------------|----------------------||
|-----------------------|----------------------||
|-5---5---5-(5)-----5---|-7---7-(7)-6-5--------||
|-7---7---7-(7)-----5---|-7---7-(7)-6-5--------||
|-0---0---0-(0)-5-7---7-|-5---5-(5)-4-3--------||
|-----------------------|----------------------||


  &
 9/8
  PM|    PM--|               PM|    PM--|
  S E. E S S E E S S S S E   S E. E S S E E S S S S E
|--------------------------|--------------------------*|
|--------------------------|--------------------------*|
|------5-------5-7-7-7-7---|------5-------5-7-7-7-7---*|
|------5-------5-7-7-7-7---|------5-------5-7-7-7-7---*|
|-5-3--3-5-3-3-3-5-5-5-5---|-5-3--3-5-3-3-3-5-5-5-5---*|
|--------------------------|--------------------------*|
comments
print report bad tab
I want to post or [tab]
guest
You may want to rate the tab now too:
select rating
Please do not post tabs as comments. Select "correction" instead!