Oops, an error
Loading. Please wait.

The Struggle Within Tab

ver1
ver1
More versions @911Tabs.com
32,469 views 36 this week
no commentswrite comment
1 2 3 4 5
accurate
x 4
Autoscroll
+/-
esc
set tempo
stop
Contributor
Difficulty
intermediate
Hey! There's an official Ultimate Guitar app which is ideal
for learning songs when you're away from computer. Get the app
WARNING: You are trying to view
                                    content from Ultimate-Guitar.com
                                    in an unauthorized application,
                                    which is prohibited.

                                    Please use an official Ultimate
                                    Guitar Tabs application for iPhone,
                                    iPad or Android to access legitimate
                                    chords, guitar, bass, and drum tabs
                                    from Ultimate-Guitar.com database.

                                    Type "ultimate guitar tabs" in Apple
                                    App Store's or Android Market's
                                    search to find the application.
-------------------------------------------------------------------------------
The Struggle Within - Metallica
-------------------------------------------------------------------------------
Tabbed by: Ibanezsweep45        
Email: Ibanezsweep45@aol.com

Tuning: Standard 

Two guitars for intro                                                Play 3 times
e|---------------------------------------------------------------------------|
B|------------------7--8--7----------7--8-------7----7--8--10/7--------------|
G|o--------7--------7--9--7----------------9--------------------------------o|
D|o--7--9--5----9-------------------------------9--------------------9------o|
A|---5--7-------7----------------------------------------------------9-------|
E|-------------------------------------------------------------------7-------|

e|----------------------------------------12 feedback--------\\\\------------|
B|---------------------------------------------------------------------------|
G|---------------------------------------------------------------------------|
D|---------------------------------------------------------------------------|
A|---2--2------2--2--2--2--2--2--2----2--------------------------------------|
E|---0--0------0--0--0--0--0--0--0----0--------------------------------------|

Get faster  
e|---------------------------------------------------------------------------|
B|---------------------------------------------------------------------------|
G|-------Rhy Fig 1-----------------------------------------------------------|
D|-------------------------------Repeat 4 times------------------------------|
A|--2--2-----2--2--2--2--2---------------------------------------------------|
E|--0--0-----0--0--0--0--0---------------------------------------------------|
   PM . . . . . . . . . . .
Verse

    2
All 0  power chords are palm muted
e|---------------------------------------------------------------------------|
B|---------------------------------------------------------------------------|
G|-----Rhy Fig 2-------------------------------------------------------------|
D|---------------------------------------------------------------------------|
A|--2--2----2--2--2--5-----2--2---2--2--2--4/5--2--2----2--2--2--4/5--2--2----2|
E|--0--0----0--0--0--3-----0--0---0--0--0--2/3--0--0----0--0--0--2/3--0--0----0|

e|---------------------------------------------------------------------------|
B|---------------------------------------------------------------------------|
G|-----------------End Rhy Fig 2--- Rhy Fig 3--------------------------------|
D|---------------------------------------------------------------------------|
A|2--2--5----2--2----2--2--2--3----2--2----2--2--2--4/5--2--2----2--2--2--4/5|
E|0--0--3----0--0----0--0--0--1----0--0----0--0--0--2/3--0--0----0--0--0--2/3|

e|---------------------------------------------------------------------------|
B|---------------------------------------------------------------------------|
G|----------------------------------------------------------End Rhy Fig 3----|
D|---------------------------------------------------------------------------|
A|2--2---2--2--2--5----2--2----2--2--2--5----2--2----2--2--2--3------3------3|
E|0--0---0--0--0--3----0--0----0--0--0--3----0--0----0--0--0--1---0--1---0--1|

e|---------------------------------------------------------------------------|
B|---------------------------------------------------------------------------|
G|-Rhy Fig 4-----------------------------------------------------End Rhy Fig 4
D|---------------------------------------------------------------------------|
A|2--2----2--2--2--4/5--2--2----2--2--2--4/5--2--2----2--2--2--5------5------5
E|0--0----0--0--0--2/3--0--0----0--0--0--2/3--0--0----0--0--0--3---0--3---0--3

e|---------------------------------------------------------------------------|
B|---------------------------------------------------------------------------|
G|---------------------------------------------------------------------------|
D|---------------------------------------------------------------------------|
A|2--2----2--2--2--5---2--2----2--2--2--5---2--2----2--2--2--5------5------5-|
E|0--0----0--0--0--3---0--0----0--0--0--3---0--0----0--0--0--3---0--3---0--3-|

Half Time Feel
e|---------------------------------------------------------------------------|
B|---------------------------------------------two guitars-------------------|
G|---------------------------------------------4h5-------------4h5-----------|
D|---5--5-----5/7-----3--3-----5/7-----5--5----5/7-----3--3----5/7-----------|
A|---5--5-------------3--3-------------5--5------------3--3------------------|
E|---3--3-------------1--1-------------3--3------------1--1------------------|

Chorus
e|---------------------------------------------------------------------------|
B|---------------------------------------------------------------------------|
G|---------------------------------------------------------------------------|
D|--4--------2-------4-------2-------4-----2--------4------2-----------------|
A|--4--------2-------4-------2-------4-----2--------4------2-----------------|
E|--2--------0-------2-------0-------2-----0--------2------0-----------------|

Interlude
e|---------------------------------------------------------------------------|
B|-----------two guitars-------------------3/5-------------3/5---------------|
G|------------4h5-----------4h5----------------------------------------------|
D|---5--5-----5/7---3--3----5/7---5--5-----5/7----3--3-----5/7-------2--2----|
A|---5--5-----------3--3----------5--5------------3--3---------------2--2-hold|
E|---3--3-----------1--1----------3--3------------1--1---------------0--0----|

e|---------------------------------------------------------------------------|
B|--------------------------------------------------3h--5 hold for fdbk------|
G|---------------------------------------------------------------------------|
D|--hold chord for feedback while other guitar-------------------------------|
A|---------------------------------------------------------------------------|
E|---------------------------------------------------------------------------|

Verse 2

    2
All 0  power chords are palm muted
e|---------------------------------------------------------------------------|
B|---------------------------------------------------------------------------|
G|---------------------------------------------------------------------------|
D|---------------------------------------------------------------------------|
A|--2--2----2--2--2--5-----2--2---2--2--2--4/5--2--2----2--2--2--4--2--2----2|
E|--0--0----0--0--0--3-----0--0---0--0--0--2/3--0--0----0--0--0--2--0--0----0|

e|---------------------------------------------------------------------------|
B|---------------------------------------------------------------------------|
G|---------------------------- ---- -----------------------------------------|
D|---------------------------------------------------------------------------|
A|2--2--5----2--2----2--2--2--3----2--2----2--2--2--4/5--2--2----2--2--2--4/5|
E|0--0--3----0--0----0--0--0--1----0--0----0--0--0--2/3--0--0----0--0--0--2/3|

e|---------------------------------------------------------------------------|
B|---------------------------------------------------------------------------|
G|---------------------------------------------------------------------- ----|
D|---------------------------------------------------------------------------|
A|2--2---2--2--2--5----2--2----2--2--2--5----2--2----2--2--2--3------3------3|
E|0--0---0--0--0--3----0--0----0--0--0--3----0--0----0--0--0--1---0--1---0--1|

e|---------------------------------------------------------------------------|
B|---------------------------------------------------------------------------|
G|---------- ----------------------------------------------------------------|
D|---------------------------------------------------------------------------|
A|2--2----2--2--2--4/5--2--2----2--2--2--4/5--2--2----2--2--2--5------5------5
E|0--0----0--0--0--2/3--0--0----0--0--0--2/3--0--0----0--0--0--3---0--3---0--3

e|---------------------------------------------------------------------------|
B|---------------------------------------------------------------------------|
G|---------------------- ----------------------------------------------------|
D|---------------------------------------------------------------------------|
A|2--2----2--2--2--4/5--2--2----2--2--2--4/5--2--2----2--2--2--5------5------5
E|0--0----0--0--0--2/3--0--0----0--0--0--2/3--0--0----0--0--0--3---0--3---0--3


Half Time Feel
e|---------------------------------------------------------------------------|
B|---------------------------------------------two guitars-------------------|
G|---------------------------------------------4h5-------------4h5-----------|
D|---5--5-----5/7-----3--3-----5/7-----5--5----5/7-----3--3----5/7-----------|
A|---5--5-------------3--3-------------5--5------------3--3------------------|
E|---3--3-------------1--1-------------3--3------------1--1------------------|

Chorus
e|---------------------------------------------------------------------------|
B|---------------------------------------------------------------------------|
G|---------------------------------------------------------------------------|
D|--4--------2-------4-------2-------4-----2--------4------2-----------------|
A|--4--------2-------4-------2-------4-----2--------4------2-----------------|
E|--2--------0-------2-------0-------2-----0--------2------0-----------------|


Interlude
e|---------------------------------------------------------------------------|
B|-----------two guitars-------------------3/5-------------3/5---------------|
G|------------4h5-----------4h5----------------------------------------------|
D|---5--5-----5/7---3--3----5/7---5--5-----5/7----3--3-----5/7-------2--2----|
A|---5--5-----------3--3----------5--5------------3--3---------------2--2-hold|
E|---3--3-----------1--1----------3--3------------1--1---------------0--0----|

e|---------------------------------------------------------------------------|
B|--------------------------------------------------3h--5 hold for fdbk------|
G|---------------------------------------------------------------------------|
D|--hold chord for feedback while other guitar-------------------------------|
A|---------------------------------------------------------------------------|
E|---------------------------------------------------------------------------|

Solo!!!!!!!!
All bends for this first part is full (unison bend)
e|-------12-----12-----12-----12-----12-12-----12-12-----12-----12-12--------|
B|---15b----15b----15b----15b----15b-------15b-------15b----15b-------15b----|
G|---------------------------------------------------------------------------|
D|---------------------------------------------------------------------------|
A|---------------------------------------------------------------------------|
E|---------------------------------------------------------------------------|

e|--12-12-----12-17b19r-17b19------------------------------------------------|
B|--------15b------------------------10p--8p7-10p--7p0-10p--8p7-10p--8p7p0---|
G|------------------------------x\-------------------------------------------|
D|---------------------------------------------------------------------------|
A|---------------------------------------------------------------------------|
E|---------------------------------------------------------------------------|

e|---------------------------------------------------------------------------|
B|---------10p-8p7--------10p-8p7--------------------------------------------|
G|-9p--7p0---------9p-7p0---------9p7p0-9p7p0--------------------------------|
D|--------------------------------------------9p7p0-9p7p0--------------------|
A|--------------------------------------------------------10-7----/14--------|
E|---------------------------------------------------------------------------|

e|----17-19-15-19-14-19----19----19----19-14-19-15-19-19p17p15-17p15p14h15---|
B|----------------------17----15----17---------------------------------------|
G|---------------------------------------------------------------------------|
D|---------------------------------------------------------------------------|
A|---------------------------------------------------------------------------|
E|---------------------------------------------------------------------------|

e|-14----14------------------------------------------------------------------|
B|----17-----17--15-14h15p14----14-15-17/19-x-8/15-18p15---14h17p14----------|
G|---------------------------16--------------------------x----------16-------|
D|---------------------------------------------------------------------------|
A|---------------------------------------------------------------------------|
E|---------------------------------------------------------------------------|

e|---------------------------------------------------------------------------|
B|---18p15----17p14-----18p15-----17p14-----18-18b20-18----------------------|
G|---------16-------16--------16--------16-----------------------------------|
D|---------------------------------------------------------------------------|
A|---------------------------------------------------------------------------|
E|---------------------------------------------------------------------------|
Sh = semi harmonic  ph = pinch harmonic
e|---------------------------------------------------------------------------|
B|------------ph----------ph-------------14-14-14-14---14--14----14----------|
G|--sh--sh----3-----------3--------------14-14-14-14---14--14----14----------|
D|--5p0-5p0-----5-3---3-5----5------/--------------------------------16p14-16|
A|------------------5-------------------with wah-----------------------------|
E|---------------------------------------------------------------------------|

e|---------------------------------------------------------------------------|
B|-14--16-------------------14-17p14--------------16b17---------------16b17--|
G|-14--16--14-----14--16b18----------16-14----14--16b18---14------14--16b18--|
D|------------16---------------------------16-----------------16-------------|
A|---------------------------------------------------------------------------|
E|---------------------------------------------------------------------------|
                                                       
                                                         w/out wah
e|------------------------------------------------------|---18p15----15------|
B|-------------------------------------17---------------|---------18----18-15|
G|--14----------------14----14-16b18-------16-16b18r-b18|--------------------|
D|------16--16--14h16----16--------hold note------------|--------------------|
A|------------------------------------------------------|--------------------|
E|------------------------------------------------------|--------------------|

e|---------------------------------------------------------------------------|
B|-18p15----15---------------------------------------------------------------|
G|-------18----17-15-17p15-15-15---------------------------------------------|
D|-------------------------------17-15-17p15----15---------------------------|
A|-------------------------------------------17----17-15-17p15-13-15p13------|
E|----------------------------------------------------------------------15---|

e|-------------------------------------------------15-----15-15--------------|
B|---------------------15----15----------\---16b18----16-----16b18-----------|
G|-----------------17--15----15----------\------hold note--------------------|
D|-----------15h17-----------------------------------------------------------|
A|-13-15/17------------------------------------------------------------------|
E|---------------------------------------------------------------------------|

e|---ph----ph----ph------|---------------------------------------------------|
B|---18b20-18b20-18b20---|---------------------------------------------------|
G|-----------------------|o--------------------------------------------------|
D|-----------------------|o------2---2-2-2-2------2---2-2-2-2------2---------|
A|-----------------------|-----5-2---2-2-2-2----5-2---2-2-2-2----5-2---------|
E|-----------------------|---0h3-0---0-0-0-0--0h3-0---0-0-0-0--0h3-0---------|
                                  PM . . . .          . . . . 
e|--------------------------|------------------------------------------------|
B|--------------------------|------------------------------------------------|
G|-------------------------o|------------------------------------------------|
D|-2-2-2-2-7\6--5--5\4--3--o|--3-3-3-----------------------------------------|
A|-2-2-2-2-7\6--5--5\4--3---|--3-3-3-----------------------------------------|
E|-0-0-0-0-5\4--3--3\2--1---|--1-1-1-----------------------------------------|
PM . . . .                     . . .
Verse 3
e|---------------------------------------------------------------------------|
B|---------------------------------------------------------------------------|
G|---------------------------------------------------------------------------|
D|---------------------------------------------------------------------------|
A|---------------------------------2--2----2--2--2--4/5--2--2----2--2--2--4/5|
E|---------------------------------0--0----0--0--0--2/3--0--0----0--0--0--2/3|

e|---------------------------------------------------------------------------|
B|---------------------------------------------------------------------------|
G|---------------------------------------------------------------------------|
D|---------------------------------------------------------------------------|
A|2--2---2--2--2--5----2--2----2--2--2--5----2--2----2--2--2--3------3------3|
E|0--0---0--0--0--3----0--0----0--0--0--3----0--0----0--0--0--1---0--1---0--1|


e|---------------------------------------------------------------------------|
B|---------------------------------------------------------------------------|
G|---------------------------------------------------------------------------|
D|---------------------------------------------------------------------------|
A|2--2----2--2--2--4/5--2--2----2--2--2--4/5--2--2----2--2--2--5------5------5
E|0--0----0--0--0--2/3--0--0----0--0--0--2/3--0--0----0--0--0--3---0--3---0--3

e|---------------------------------------------------------------------------|
B|---------------------------------------------------------------------------|
G|---------------------------------------------------------------------------|
D|---------------------------------------------------------------------------|
A|2--2----2--2--2--4/5--2--2----2--2--2--4/5--2--2----2--2--2--5------5------5
E|0--0----0--0--0--2/3--0--0----0--0--0--2/3--0--0----0--0--0--3---0--3---0--3

Half Time Feel
e|---------------------------------------------------------------------------|
B|---------------------------------------------two guitars-------------------|
G|---------------------------------------------4h5-------------4h5-----------|
D|---5--5-----5/7-----3--3-----5/7-----5--5----5/7-----3--3----5/7-----------|
A|---5--5-------------3--3-------------5--5------------3--3------------------|
E|---3--3-------------1--1-------------3--3------------1--1------------------|

Chorus
e|---------------------------------------------------------------------------|
B|---------------------------------------------------------------------------|
G|---------------------------------------------------------------------------|
D|--4--------2-------4-------2-------4-----2--------4------2-----------------|
A|--4--------2-------4-------2-------4-----2--------4------2-----------------|
E|--2--------0-------2-------0-------2-----0--------2------0-----------------|


Interlude
e|---------------------------------------------------------------------------|
B|-----------two guitars-------------------3/5-------------3/5---------------|
G|------------4h5-----------4h5----------------------------------------------|
D|---5--5-----5/7---3--3----5/7---5--5-----5/7----3--3-----5/7-------2--2----|
A|---5--5-----------3--3----------5--5------------3--3---------------2--2-hold|
E|---3--3-----------1--1----------3--3------------1--1---------------0--0----|

e|---------------------------------------------------------------------------|
B|--------------------------------------------------3h--5 hold for fdbk------|
G|---------------------------------------------------------------------------|
D|--hold chord for feedback while other guitar-------------------------------|
A|---------------------------------------------------------------------------|
E|---------------------------------------------------------------------------|

e|---------------------------------------------------------------------------|
B|---------------------------------------------------------------------------|
G|---------------------------------------------------------------------------|
D|---------------------------------------------------------------------------|
A|---2-2---2-2-2-2--2-2---2-2-2-2--2-2--2-2-2-2--2-2---2--2------------------|
E|---0-0---0-0-0-0--0-0---0-0-0-0--0-0--0-0-0-0--0-0---0--0------------------|
PM   . .   . . . .  . .   . . . .  . .  . . . .  . .   .  .


| /  slide up
| \  slide down
| h  hammer-on
| p  pull-off
| ~  vibrato
| ph pinch harmonic
| sh semi-harmonic
| .  Mute note
=====================================================
comments
print report bad tab
I want to post or [tab]
guest
You may want to rate the tab now too:
select rating
Please do not post tabs as comments. Select "correction" instead!