Oops, an error
Loading. Please wait.

The Struggle Within Tab

ver2
ver2
More versions @911Tabs.com
2,664 views 1 this week
no commentswrite comment
1 2 3 4 5
not so good
x 2
Autoscroll
+/-
esc
set tempo
stop
Contributor
WARNING: You are trying to view
                                    content from Ultimate-Guitar.com
                                    in an unauthorized application,
                                    which is prohibited.

                                    Please use an official Ultimate
                                    Guitar Tabs application for iPhone,
                                    iPad or Android to access legitimate
                                    chords, guitar, bass, and drum tabs
                                    from Ultimate-Guitar.com database.

                                    Type "ultimate guitar tabs" in Apple
                                    App Store's or Android Market's
                                    search to find the application.
E|---------------------------------------------------------------------------|
B|------------------7--8------------7--8---------7----7--8--7/10-------------|
G|---------7--------7--9--7----------------9---------------------------------|
D|---7--9--5----9---------7----------------------9-------------------9---3x--|
A|---5--7-------7----------------------------------------------------9-------|
E|-------------------------------------------------------------------7-------|

E|----------------------------------------12--hold-   then slide down--------|
B|---------------------------------------------------------------------------|
G|---------------------------------------------------------------------------|
D|---2--2------2--2--2--2--2--2--2----2--------------------------------------|
A|---2--2------2--2--2--2--2--2--2----2--------------------------------------|
E|---0--0------0--0--0--0--0--0--0----0--------------------------------------|

180 bpm
E|---------------------------------------------------------------------------|
B|---------------------------------------------------------------------------|
G|---------------------------------------------------------------------------|
D|--2--2-----2--2--2--2--2-------(4x)-----2--2-----2--2--2--2----------------|
A|--2--2-----2--2--2--2--2----------------2--2-----2--2--2--2----------------|
E|--0--0-----0--0--0--0--0----------------0--0-----0--0--0--0----------------|

Verse


     E power chords are palm muted
E|---------------------------------------------------------------------------|
B|---------------------------------------------------------------------------|
G|---------------------------------------------------------------------------|
D|--2--2----2--2--2--5-----2--2---2--2--2--4/5--2--2----2--2--2--4/5--2--2---|
A|--2--2----2--2--2--5-----2--2---2--2--2--4/5--2--2----2--2--2--4/5--2--2-- |
E|--0--0----0--0--0--3-----0--0---0--0--0--2/3--0--0----0--0--0--2/3--0--0---|

E|--------------------------------------------------------------------------------|
B|--------------------------------------------------------------------------------|
G|--------------------------------------------------------------------------------|
D|2--2--5----2--2----2--2--2--3----2--2----2--2--2--4/5--2--2----2--2--2-----4/5|-|
A|2--2--5----2--2----2--2--2--3----2--2----2--2--2--4/5--2--2----2--2--2--4/5|----|
E|0--0--3----0--0----0--0--0--1----0--0----0--0--0--2/3--0--0----0--0--0--2/3|----|

E|------------------------------------------------------------------------------|
B|------------------------------------------------------------------------------|
G|------------------------------------------------------------------------------|
D|2--2---2--2--2--5----2--2----2--2--2--5----2--2----2--2--2--3------3-------3--|
A|2--2---2--2--2--5----2--2----2--2--2--5----2--2----2--2--2--3------3------3---|
E|0--0---0--0--0--3----0--0----0--0--0--3----0--0----0--0--0--1---0--1---0--1---|

E|-----------------------------------------------------------------------------|
B|-----------------------------------------------------------------------------|
G|-----------------------------------------------------------------------------|

D|2--2----2--2--2--4/5--2--2----2--2--2--4/5--2--2----2--2--2--5------5------5--|
A|2--2----2--2--2--4/5--2--2----2--2--2--4/5--2--2----2--2--2--5------5------5--|
E|0--0----0--0--0--2/3--0--0----0--0--0--2/3--0--0----0--0--0--3---0--3---0--3--|

E|---------------------------------------------------------------------------|
B|---------------------------------------------------------------------------|
G|---------------------------------------------------------------------------|
D|2--2----2--2--2--5---2--2----2--2--2--5---2--2----2--2--2--5------5------5-|
A|2--2----2--2--2--5---2--2----2--2--2--5---2--2----2--2--2--5------5------5-|
E|0--0----0--0--0--3---0--0----0--0--0--3---0--0----0--0--0--3---0--3---0--3-|


E|----Both Guitars-----------------------------------------------------------|
B|---------------------------------------------------------------------------|
G|---------------------------------------------4h5-------------4h5-----------|
D|---5--5-----5/7-----3--3-----5/7-----5--5----5/7-----3--3----5/7-----------|
A|---5--5-------------3--3-------------5--5------------3--3------------------|
E|---3--3-------------1--1-------------3--3------------1--1------------------|

Chorus
E|---------------------------------------------------------------------------|
B|---------------------------------------------------------------------------|
G|---------------------------------------------------------------------------|
D|--4--------2-------4-------2-------4-----2--------4------2-----------------|
A|--4--------2-------4-------2-------4-----2--------4------2-----------------|
E|--2--------0-------2-------0-------2-----0--------2------0-----------------|


E|-------Both Guitars-----------------------------------------------------------|
B|-----------------------------------------3/5-------------3/5------------------|
G|------------4h5-----------4h5-------------------------------------------------|
D|---5--5-----5/7---3--3----5/7---5--5-----5/7----3--3-----5/7-------2--2-------|
A|---5--5-----------3--3----------5--5------------3--3---------------2--2-hold--|
E|---3--3-----------1--1----------3--3------------1--1---------------0--0-------|

E|---------------------------------------------------------------------------|
B|-------------3h--5 (hold 5)------------------------------------------------|
G|---------------------------------------------------------------------------|
D|---------------------------2-2--2-2-2-2-2--2-2--2-2-2-2-2--2-2--2-2-2-2-2--|
A|---------------------------2-2--2-2-2-2-2--2-2--2-2-2-2-2--2-2--2-2-2-2-2--|
E|---------------------------0-0--0-0-0-0-0--0-0--0-0-0-0-0--0-0--0-0-0-0-0--|

Verse 2



E|------------------------------------------------------------------------------|
B|------------------------------------------------------------------------------|
G|------------------------------------------------------------------------------|
D|--2--2----2--2--2--5-----2--2---2--2--2--4/5--2--2----2--2--2--4--2--2-----2--|
A|--2--2----2--2--2--5-----2--2---2--2--2--4/5--2--2----2--2--2--4--2--2----2---|
E|--0--0----0--0--0--3-----0--0---0--0--0--2/3--0--0----0--0--0--2--0--0----0---|

E|--------------------------------------------------------------------------------|
B|--------------------------------------------------------------------------------|
G|---------------------------- ---- ----------------------------------------------|
D|2--2--5----2--2----2--2--2--3----2--2----2--2--2--4/5--2--2----2--2--2-----4/5|-|
A|2--2--5----2--2----2--2--2--3----2--2----2--2--2--4/5--2--2----2--2--2--4/5|----|
E|0--0--3----0--0----0--0--0--1----0--0----0--0--0--2/3--0--0----0--0--0--2/3|----|

E|---------------------------------------------------------------------------|
B|---------------------------------------------------------------------------|
G|---------------------------------------------------------------------- ----|
D|2--2---2--2--2--5----2--2----2--2--2--5----2--2----2--2--2--3------3-----3-|
A|2--2---2--2--2--5----2--2----2--2--2--5----2--2----2--2--2--3------3-----3-|
E 0--0---0--0--0--3----0--0----0--0--0--3----0--0----0--0--0--1---0--1--0--1-|

E|------------------------------------------------------------------------------|
B|------------------------------------------------------------------------------|
G|---------- -------------------------------------------------------------------|
D|2--2----2--2--2--4/5--2--2----2--2--2--4/5--2--2----2--2--2--5------5------5--|
A|2--2----2--2--2--4/5--2--2----2--2--2--4/5--2--2----2--2--2--5------5------5--|
E|0--0----0--0--0--2/3--0--0----0--0--0--2/3--0--0----0--0--0--3---0--3---0--3--|

E|------------------------------------------------------------------------------|
B|------------------------------------------------------------------------------|
G|---------------------- -------------------------------------------------------|
D|2--2----2--2--2--4/5--2--2----2--2--2--4/5--2--2----2--2--2--5------5------5--|
A|2--2----2--2--2--4/5--2--2----2--2--2--4/5--2--2----2--2--2--5------5------5--|
E|0--0----0--0--0--2/3--0--0----0--0--0--2/3--0--0----0--0--0--3---0--3---0--3--|



E|--------Both Guitars-------------------------------------------------------|
B|---------------------------------------------------------------------------|
G|---------------------------------------------4h5-------------4h5-----------|
D|---5--5-----5/7-----3--3-----5/7-----5--5----5/7-----3--3----5/7-----------|
A|---5--5-------------3--3-------------5--5------------3--3------------------|
E|---3--3-------------1--1-------------3--3------------1--1------------------|

Chorus
E|---------------------------------------------------------------------------|
B|---------------------------------------------------------------------------|
G|---------------------------------------------------------------------------|
D|--4--------2-------4-------2-------4-----2--------4------2-----------------|
A|--4--------2-------4-------2-------4-----2--------4------2-----------------|
E|--2--------0-------2-------0-------2-----0--------2------0-----------------|



E|----------Both Guitars--------------------------------------------------------|
B|-----------------------------------------3/5-------------3/5------------------|
G|------------4h5-----------4h5-------------------------------------------------|
D|---5--5-----5/7---3--3----5/7---5--5-----5/7----3--3-----5/7-------2--2-------|
A|---5--5-----------3--3----------5--5------------3--3---------------2--2-hold--|
E|---3--3-----------1--1----------3--3------------1--1---------------0--0-------|

E|---------------------------------------------------------------------------|
B|------------3h--5 (hold 5)-------------------------------------------------|
G|---------------------------------------------------------------------------|
D|---------------------------------------------------------------------------|
A|---------------------------------------------------------------------------|
E|---------------------------------------------------------------------------|

Solo!( during solo rythm guitar play's:

E|---------------------------------------------------------------------------|
B|---------------------------------------------------------------------------|
G|---------------------------------------------------------------------------|
D|2--2----2--2--2--4/5-----2--2----2--2--2--4/5-----2--2----2--2--2--4/5-----|
A|2--2----2--2--2--4/5-----2--2----2--2--2--4/5-----2--2----2--2--2--4/5-----|
E|0--0----0--0--0--2/3-----0--0----0--0--0--2/3-----0--0----0--0--0--2/3-----|

E|---------------------------------------------------------------------------|
B|---------------------------------------------------------------------------|
G|---------------------------------------------------------------------------|
D|2--2----2--2--2--5-----2--2----2--2--2--4/5------2--2----2--2--2--4/5------|
A|2--2----2--2--2--5-----2--2----2--2--2--4/5------2--2----2--2--2--4/5------|
E|0--0----0--0--0--3-----0--0----0--0--0--2/3------0--0----0--0--0--2/3------|

E|---------------------------------------------------------------------------|
B|---------------------------------------------------------------------------|
G|---------------------------------------------------------------------------|
D|2--2----2--2--2--4/5-----2--2----2--2--2--5------5--5----5--5--5--7/8------|
A|2--2----2--2--2--4/5-----2--2----2--2--2--5------5--5----5--5--5--7/8------|
E|0--0----0--0--0--2/3-----0--0----0--0--0--3------3--3----3--3--3--5/6------|

E|---------------------------------------------------------------------------|
B|---------------------------------------------------------------------------|
G|---------------------------------------------------------------------------|
D|5--5----5--5--5--7/8-----5--5----5--5--5--7/8----5--5----5--5--5--8--------|
A|5--5----5--5--5--7/8-----5--5----5--5--5--7/8----5--5----5--5--5--8--------|
E|3--3----3--3--3--5/6-----3--3----3--3--3--5/6----3--3----3--3--3--6--------|

E|---------------------------------------------------------------------------|
B|---------------------------------------------------------------------------|
G|---------------------------------------------------------------------------|
D|5--5----5--5--5--7/8-----5--5----5--5--5--7/8----5--5----5--5--5--7/8------|
A|5--5----5--5--5--7/8-----5--5----5--5--5--7/8----5--5----5--5--5--7/8------|
E|3--3----3--3--3--5/6-----3--3----3--3--3--5/6----3--3----3--3--3--5/6------|

E|---------------------------------------------------------------------------|
B|---------------------------------------------------------------------------|
G|---------------------------------------------------------------------------|
D|5--5----5--5--5--8--------------4----2----4----2----4----2----4----2-------|
A|5--5----5--5--5--8--------------4----2----4----2----4----2----4----2-------|
E|3--3----3--3--3--6--------------2----0----2----0----2----0----2----0-------|

E|---------------------------------------------------------------------------|
B|---------------------------------------------------------------------------|
G|---------------------------------------------------------------------------|
D|5--5----5--5--5--7/8-----5--5----5--5--5--7/8-----5--5----5--5--5--6/8-----|
A|5--5----5--5--5--7/8-----5--5----5--5--5--7/8-----5--5----5--5--5--6/8-----|
E|3--3----3--3--3--5/6-----3--3----3--3--3--5/6-----3--3----3--3--3--4/6-----|

E|---------------------------------------------------------------------------|
B|---------------------------------------------------------------------------|
G|---------------------------------------------------------------------------|
D|5--5----5--5--5--6----------6-----6-------5--5--5--5--6--------6-----6-----|
A|5--5----5--5--5--6----------6-----6-------5--5--5--5--6--------6-----6-----|
E|3--3----3--3--3--4-------0--4--0--4-------3--3--3--3--4-----0--4--0--4-----|


E|------------------------------------------------------|--------------------|
B|------------------------------------------------------|--------------------|
G|------------------------------------------------------|--------------------|
D|5--5--5-----------------------------------------------|--------------------|
A|5--5--5-----------------------------------------------|--------------------|
E|3--3--3-----------------------------------------------|--------------------|


E|-----------------------|---------------------------------------------------|
B|-----------------------|---------------------------------------------------|
G|-----------------------|---------------------------------------------------|
D|-----------------------|-------2---2-2-2-2------2---2-2-2-2------2---------|
A|-----------------------|-----5-2---2-2-2-2----5-2---2-2-2-2----5-2---------|
E|-----------------------|---0-3-0---0-0-0-0--0-3-0---0-0-0-0--0-3-0---------|

E|------------------------------|--------------------------------------------|
B|------------------------------|--------------------------------------------|
G|------------------------------|--------------------------------------------|
D|-2-2-2-2-7\6--5--5\4--3---(2x)|--3-3-3-------------------------------------|
A|-2-2-2-2-7\6--5--5\4--3-------|--3-3-3-------------------------------------|
E|-0-0-0-0-5\4--3--3\2--1-------|--1-1-1-------------------------------------|

Verse 3
E|--------------------------------------------------------------------------------|
B|--------------------------------------------------------------------------------|
G|--------------------------------------------------------------------------------|
D|---------------------------------2--2----2--2--2--4/5--2--2----2--2--2-----4/5|-|
A|---------------------------------2--2----2--2--2--4/5--2--2----2--2--2--4/5|----|
E|---------------------------------0--0----0--0--0--2/3--0--0----0--0--0--2/3|----|

E|------------------------------------------------------------------------------|
B|------------------------------------------------------------------------------|
G|------------------------------------------------------------------------------|
D|2--2---2--2--2--5----2--2----2--2--2--5----2--2----2--2--2--3------3-------3--|
A|2--2---2--2--2--5----2--2----2--2--2--5----2--2----2--2--2--3------3------3---|
E|0--0---0--0--0--3----0--0----0--0--0--3----0--0----0--0--0--1---0--1---0--1---|


E|------------------------------------------------------------------------------|
B|------------------------------------------------------------------------------|
G|------------------------------------------------------------------------------|
D|2--2----2--2--2--4/5--2--2----2--2--2--4/5--2--2----2--2--2--5------5------5--|
A|2--2----2--2--2--4/5--2--2----2--2--2--4/5--2--2----2--2--2--5------5------5--|
E|0--0----0--0--0--2/3--0--0----0--0--0--2/3--0--0----0--0--0--3---0--3---0--3--|

E|------------------------------------------------------------------------------|
B|------------------------------------------------------------------------------|
G|------------------------------------------------------------------------------|
D|2--2----2--2--2--4/5--2--2----2--2--2--4/5--2--2----2--2--2--5------5------5--|
A|2--2----2--2--2--4/5--2--2----2--2--2--4/5--2--2----2--2--2--5------5------5--|
E|0--0----0--0--0--2/3--0--0----0--0--0--2/3--0--0----0--0--0--3---0--3---0--3--|


E|--------Both Guitars-------------------------------------------------------|
B|---------------------------------------------------------------------------|
G|---------------------------------------------4h5-------------4h5-----------|
D|---5--5-----5/7-----3--3-----5/7-----5--5----5/7-----3--3----5/7-----------|
A|---5--5-------------3--3-------------5--5------------3--3------------------|
E|---3--3-------------1--1-------------3--3------------1--1------------------|

Chorus
E|---------------------------------------------------------------------------|
B|---------------------------------------------------------------------------|
G|---------------------------------------------------------------------------|
D|--4--------2-------4-------2-------4-----2--------4------2-----------------|
A|--4--------2-------4-------2-------4-----2--------4------2-----------------|
E|--2--------0-------2-------0-------2-----0--------2------0-----------------|



E|----------Both Guitars--------------------------------------------------------|
B|-----------------------------------------3/5-------------3/5------------------|
G|------------4h5-----------4h5-------------------------------------------------|
D|---5--5-----5/7---3--3----5/7---5--5-----5/7----3--3-----5/7-------2--2-------|
A|---5--5-----------3--3----------5--5------------3--3---------------2--2-hold--|
E|---3--3-----------1--1----------3--3------------1--1---------------0--0-------|

E|---------------------------------------------------------------------------|
B|-----------3h--5 (hold 5)--------------------------------------------------|
G|---------------------------------------------------------------------------|
D|---------------------------------------------------------------------------|
A|---------------------------------------------------------------------------|
E|---------------------------------------------------------------------------|

E|---------------------------------------------------------------------------|
B|---------------------------------------------------------------------------|
G|---------------------------------------------------------------------------|
D|---2-2---2-2-2-2-2--2-2---2-2-2-2-2--2-2--2-2-2-2-2--2-2---2--2------------|
A|---2-2---2-2-2-2-2--2-2---2-2-2-2-2--2-2--2-2-2-2-2--2-2---2--2------------|
E|---0-0---0-0-0-0-0--0-0---0-0-0-0-0--0-0--0-0-0-0-0--0-0---0--0------------|
comments
We did not receive enough feedback on this tab! Please rate:
print report bad tab
1 2 3 4 5
I want to post or [tab]
guest
You may want to rate the tab now too:
select rating
Please do not post tabs as comments. Select "correction" instead!