Oops, an error
Loading. Please wait.

The Unforgiven Ii Tab

ver1
ver1
More versions @911Tabs.com
263,628 views 664 this week
12 commentsread comments
1 2 3 4 5
accurate
x 32
Autoscroll
+/-
esc
set tempo
stop
Hey! There's an official Ultimate Guitar app which is ideal
for learning songs when you're away from computer. Get the app
WARNING: You are trying to view
                                    content from Ultimate-Guitar.com
                                    in an unauthorized application,
                                    which is prohibited.

                                    Please use an official Ultimate
                                    Guitar Tabs application for iPhone,
                                    iPad or Android to access legitimate
                                    chords, guitar, bass, and drum tabs
                                    from Ultimate-Guitar.com database.

                                    Type "ultimate guitar tabs" in Apple
                                    App Store's or Android Market's
                                    search to find the application.
Metallica - The Unforgiven 2
Submitted By: Zudin
EMail: gul_bone


Tuning: Standard (E A D G B E)


Ok..I got a few requests lately for this song. And I totally know why..The
Unforgiven II is both an INCREDIBLE song, AND its also hard as hell to play
and is a VERY VERY involved song guitar wise, but thankfully, I got my
trusty Ibanez tape recorder which helps me out when it comes to figuring
out songs.

First thing I wanna tell ya...there are a lot of 2 different guitar
parts going on at the same time....so whenever you see 2 lines of tab
connected like this....

/|-----------------------------|
||-----------------------------|
||-----------------------------|
||-----------------------------|
||-----------------------------|
||-----------------------------|
|
|
||-----------------------------|
||-----------------------------|
||-----------------------------|
||-----------------------------|
||-----------------------------|
\|-----------------------------|
...notice the verticle line down the left of the tab. That means to play
both those lines (seperate guitars) at the same time.


As always in Load and Re-load, tune down guitars 1 half step.

Oh, by the way, whenever theres a part with 2 guitars at the same time,
like I expalined above...The Part Kirk plays will be on top, and James will
be under it.

Intro (2 guitars-both distortion)
/ |----------------------------------------------------------------------|
| |----------------------------------------------------------------------|
| |----------------------------------------------------------------------|
| |-7------7/9/10---12\10/12----/14\12--10/12\10--10----7\9\10-12\10\12--|
| |----------------------------------------------------------------------|
| |-5------5/7/8----10\8 /10----/12\10---8/10\8---8-----5\7\8--10\8-\10--|
|
| |----------------------------------------------------------------------|
| |----------------------------------------------------------------------|
| |-2--2---5--------5--------------------------------2-------------------|
| |-2--2---5--------5-----5------2-------2-----------2---------------5---|
| |-0--0---3--------3-----5------2-------2-----------0---------------5---|
\ |-----------------------3------0-------0---------------------------3---|


/ |-----------------|
| |-----------------|
| |-----------------|
| |-/12\7---7/9\7---|
| |-----------------|
| |-/10\5---5/7\5---|
|
| |-----------------|
| |-----------------|
| |----out----------|
| |-----------------|
| |-----------------|
\ |-----------------|


Heres the thing, James uses a B-string bender on his guitar
for that "country" soundin part, you can play it ALMOST like that by
just playin what I got.                                            Light distortion
/|-------------------------------------------------------------------------|
||------------------------------------------------5/10--10-12-13--12^-9-9/-|
||------------------------------------------------2/5----------------------|
||-------------------------------------------------------------------------|
||-------------------------------------------------------------------------|
||-------------------------------------------------------------------------|
|
||------0----------------------3---3--3---------------|
||---------1---------------3^------3^-3^--0---1/3\1---|
||----------------------0-------------------0-2/4\2---|
||---2---------------2--------------------------------|repeat throughout
||0-----------0-2-3-----------------------------------|similar stuff
\|----------------------------------------------------|
                         full bend


..Then start singing the first verse

...Then when he sings "Then I can Understand the you", play the guitar part
that KIRK (and only Kirk) plays in the intro, and at the same time, a
second guitar (no distortion) plays a strummer of chords, like so...
           (Chord boxes are listed at the top of the page)

                   Am  / / // Cadd9  / / // G  / / // Em  / / //
"Understand the you"

Play that 2 times. Then....

         "Lay beside...
|--------------------------------------------|
|--------------------------------------------|
|--------2-----------0---------0---------1---|Repeat that 3 more times
|----2-----------2---------------------------|
|-0-----------3-------------2---------2------|
|------------------------3---------0---------|


Then ya got....

          No, theres no sun...
|-----------------------------------------------------0------|
|--------3-------------1-----------------------1------0------|
|-----2-------------2-------------0---------2---------2------|
|--0-------------3-----------------------3------------2------|
|------------------------------2----------------------0------|
|--------------------------3---------------------------------|Chorus (distortion)

"What ive.."               "Turn the pages.."
|--------------------------------------------------------------|
|--0--1-----1--1----1---0--1--0--3----3--3----3--1----1--1---0-|
|--2--2-----2--2----2---2--2--0--0----0--0----0--0----0--0---0-|
|--2--2-----2--2----2---2--2-----------------------------------|
|--0-----X------------X-0--------------------------------------|
|--------------------------------------------------------------|

...Repeat that line again for the next part of the chorus
then play...

|---------------------------|
|---------------------------|
|----/7--5--4--5----4-------|
|---------------------7\----|
|---------------------------|
|---------------------------|

Repeat the entire thing for the rest of the chorus...

...then, for the next verse...ok, let me explain the next verse..
the next verse, as you should obviously know, has a weird sounding
guitar effect in it. That effect can be produced by taking your
chorus pedal, and turn the SPEED and the DEPTH both up ALL THE WAY.
and, thats how you make the effect.

Next verse
|--8------8------8-------8------7------7------7------7------|
|-10-----10------8-------8------8------8------9------9------|
|-----9------9-------9------9------7------7------9------9---|Repeat for
|-----------------------------------------------------------|entire verse
|-----------------------------------------------------------|
|-----------------------------------------------------------|

the third time you play that..the 2nd guitar plays..
|--------------------------------------------|
|--------------------------------------------|
|--------2-----------0---------0---------1---|
|----2-----------2---------------------------|
|-0-----------3-------------2---------2------|
|------------------------3---------0---------|

..then, for the PRE CHORUS ("she'll be there when Im gone"), play...
|-----------------------------------------------------0------|
|--------3-------------1-----------------------1------0------|
|-----2-------------2-------------0---------2---------2------|
|--0-------------3-----------------------3------------2------|
|------------------------------2----------------------0------|
|--------------------------3---------------------------------|

...then ya repeat the chorus....


Ok...im about to type out the solo. Its actually kinda easy for Kirk's
standards.....before I type the solo...i want to tell you what the other
guitar shouls play...

first, when the solo starts, the other guitar plays the intro part 1 and
a half times, then it plays G5 /   / /   E5 / XX X, then it plays the
chorus part until the solo is finished....just listen to the cd.

Solo
|-------------------------------------------------------------------------|
|-----------------5--7----------------------------------------------------|
|-----------------5--7---5\4--5--4h5p4---4----------------17-19^-17----17-|
|-/7----7--7---7-----------------------7----5~~--5-5--/19-----------19----|
|-------------------------------------------------------------------------|
|-------------------------------------------------------------------------|

|-------------------------------------------------------------------------|
|-------20-------20------20-------20------20--20----20--20---19^--17---17-|
|-19^------19-------19------^19------19^--19-----19-----19-----------19---|
|-------------------------------------------------------------------------|
|-------------------------------------------------------------------------|
|-------------------------------------------------------------------------|

|---------------------------17--------------17--------------17-------17---|
|--20^--20^--20^--20^\--/17----17-20^^\-/17----17--20^\-/17---17-20^---20-|
|-------------------------------------------------------------------------|
|-------------------------------------------------------------------------|
|-------------------------------------------------------------------------|
|-------------------------------------------------------------------------|

|-------------------------------------------------------------------------|
|-17----------------19-17----19-17----19-17----19-17----------------------|
|----19p17-19p17----19-17----19-17----19-17----19-17----17-19-19^-19p17---|
|----------------19-------19-------19-------19-------19----------------19-|
|-------------------------------------------------------------------------|
|-------------------------------------------------------------------------|

|-------------------------------------------------------------------|
|-----------------19--17\-------------------------------------------|
|--17--19^^p17----19--17\------5------------------------------------|
|--------------19----------/7------7--5----5------------------------|
|---------------------------------------7----7--6--5--3----5---3----|
|--------------------------------------------------------5-------5--|

..right after the solo, play the intro part again.
then, play the Jaymz's "country" sounding part (you know what I mean), then
the chorus, and half way through, you hear a part in there (the main part
from the Original Unforgiven), which is played...

(with reverb or some sort of echo)
|---------------------------------------------|
|---------------------------------------------|
|--2--4-4h5--5--5-5-4--0-----2--4-4h5--7--5---|
|---------------------------------------------|
|---------------------------------------------|
|---------------------------------------------|

the second time around, you play it....
|----------------------------------------------|
|------------------------------------------5---|
|--2--4-4h5--5--5-5-4--0-----2--4-4h5--7-------|
|----------------------------------------------|
|----------------------------------------------|
|----------------------------------------------|


...then the outro is basically just a strummer of chords..Play each chord
in gropus of 2, and keep them spaced out between each chord

                 Am /    G-B /    Asus2  Am    D5 /  Am /  G /   G5
"unforgiven too"                                                (hold)


....then, afer a second or 2 in silence, you think the song is over, but
then you hear the cymbal, and a little soft sounding thing on the guitar.
it goes like this....

Play this volume swell
|------------------|
|------------------|
|--4^-grad.-bend---|
|--2---------------|
|--0---------------|
|------------------|
in case you dont know what a volume swell is..before you play that chord,
turn the volume knob on the guitar down all the way, play the chord, then
turn the volume up.

...GUESS WHAT!!! THAT'S THE ENTIRE SONG!!! ITS OVER!! IT'S QUITE A
CHALLENGING SONG BUT THATS IT!

as always, any questions, comments, death threats, AND NOW REQUESTS, are
accepted at gul_bone@hotmail.com
===========Metallica - The Unforgiven 2
Tabbed By: Angel
EMail: raiangel18@yahoo.com

Tune Down 1/2 step

Intro
eb------------------------------
bb------------------------------
gb------------------------------
db--3---------------------------
ab------------------------------
eb------------------------------
Horn arr. for guitar

  Riff A (kirk)
eb---------------------------------------------------------------------------------
bb---------------------------------------------------------------------------------
gb---------------------------------------------------------------------------------
db--7--7/9/10-1210/12--1412--10/1210--7/9/10--1210/12--127--7/97-------------
ab---------------------------------------------------------------------------------
eb--5--5/7/8--108/10---1210--8//108---5/7/8---108/10--105--5/75-------------

  Rhy.fig 1 (james)     end fig 1 played together with Riff A
eb---------------------------------------------------------------------------------
bb---------------------------------------------------------------------------------
gb--2---2---5---5------------------------------------------------------------------
db--2---2---5---5--5---5---2---2---------------------------------------------------
ab--0---0---3---3--5---5---2---2---------------------------------------------------
eb-----------------3---3---0---0---------------------------------------------------

  Rhy.fig 2 Also the riff which is played during the verse
eb--------0-----------------3-3------3-----------------------------0---------------
bb----------1-----------3fb---3fbr-----3fbr---0-----1/31p0----------1-------------
gb--------------------0-------------------------0---2/44p0------2-----------------
db------2-----------2-----------------------------2------------2-------------------
ab--0---------0-2-3------------------------------------------0---------0-2-3-------
eb---------------------------------3--------0--------------------------------------
                                   T
                                end fig. 2
eb----------3-3------3-------------------------------------------------------------
bb------3fb---3fbr-----3fbr---0-----1/3-1------------------------------------------
gb----0-------------------------0---2/4-2------------------------------------------
db--2-----------------------------2------------------------------------------------
ab---------------------------------------------------------------------------------
eb-----------------3--------0------------------------------------------------------
                   T
   Rhy.fig 3  2nd verse "lay beside me" played together with fig.2 (2 times)
eb---------------------------------------------------------------------------------
bb---------------------------------------------------------------------------------
gb--------2--------0--------0--------1---------------------------------------------
db-----2--------2------------------------------------------------------------------
ab--0--------3-----------2--------2------------------------------------------------
eb--------------------3--------0---------------------------------------------------

  Rhy.fig 4 "no there's no sun...."
eb-------1------------------------------0------------------------------------------
bb---------3----------------------------0------------------------------------------
gb----2------2-------0-------0-------0--2------------------------------------------
db--0--------------3-------0-------3----2------------------------------------------
ab---------------3-------2-------3------0------------------------------------------
eb-------------1-------3-------1---------------------------------------------------

   chorus Rhy.fig 5                                       end
eb---------------------------------------------------------------------------------
bb--0-1---1-1--1---1-0---0-0--0---0-3---3-3--3---3-1---1-1--0----0--1---1-1--1-----
gb--2-2---2-2--2---2-2---0-0--0---0-0---0-0--0---0-0---0-0--0----2--2---2-2--2-----


Guitar solo
              Or u r un      forgiven, too?           1/2           H P 
eb------------------------------------------------------------------------------
bb--0-3---3-3---3----------------------------------5--7-------------------------
gb--0-0---0-0---0----/7/5-7-7-7-7-54--------------5--7-----54--5--4-5-4----4--
db------------------------------------/7---7--7--7------------------------7-----
ab------3---------3-------------------------------------------------------------
eb------------------------------------------------------------------------------
   ~~~~~                  ^                  ^~~~~~~~~~~~~~~        ^      ^
eb------------------------------------------------------------------------------
bb----------------------------------------------20-------------20------20-------
gb-----------------17---19---17-------17---19--------20----19------19------19---
db-5----5--5--/19-----------------19--------------------------------------------
ab------------------------------------------------------------------------------
eb------------------------------------------------------------------------------
     ~~~~~~~~~~~~~~~~~~~      1/2              ^  ^   ^   ^~~~               ^   ^
eb--------------------------------------------------------------------17----------
bb-20--20-------20-----20---------17-----17--20--20--20--20---(20)/17---17-20-(20)
gb-19^------19---------19----19------19-----------------------------------------
db------------------------------------------------------------------------------
ab------------------------------------------------------------------------------
eb------------------------------------------------------------------------------
                    ^      
eb----------17-----------------17---------17-----------------------------------
bb-(20)/17----17--20-(20)/17----17--20^----20--17--------------------19-------
gb--------------------------------------------------19^(19)p17-19p17---19--17--
db-------------------------------------------------------------------19------19  
ab------------------------------------------------------------------------------
eb------------------------------------------------------------------------------

eb------------------------------------------------------------------------------
bb-19--------19-------19-----------------------------------------------19-17---
gb-19-17-----19-17----19--17----17--19-19^-19p17-----17--19^(19)p17----19-17---
db--------19-------19--------19------------------19-----------------19----------
ab------------------------------------------------------------------------------
eb------------------------------------------------------------------------------

eb------------------------------------------------------------------------------
bb------------------------------------------------------------------------------
gb------5-----------------------------------------------------------------------
db--/7------7---5---5-----------------------------------------------------------
ab----------------7-----7--6--5--3-----5---3------------------------------------
eb----------------------------------5---------5---------------------------------

eb-----------------------------------------------------------------------------
bb----------------------------------------------------------------------------- 
gb-----5/7-9-129/12--13--14--5/7--9--129/12--12-13--13-14--------------------
db-----------------------------------------------------------------------------
ab-----3/5-7-107/10--11--12--3/5--7--107/10--10-11--11-12--------------------
eb-----------------------------------------------------------------------------

 / = slide up
    = slide down
   h = hammer on
   p = pull off
   b = bend
  hb = half bend
  fb = full bend
 fbr = full bend and then release
 hbr = half bend and then release
   T = string is storke with thumb
   ~ = the string is vabr. with finger


 Enjoy it!!!
===========
The Unforgiven II
Metallica - REload
Tabbed by Jeffrey Yan Chen Fei
E-mail: jeffrey@hotmail.com

Tablature explanation:-
b = Bend
h = Hammer
r = Reverse bend
p = Pull-off
~ = Vibration

All guitars should be tuned 1/2 step down.

Intro:

1st guitar play this [this was played by Kirk] :
|----------------------------------------------------------------|
|----------------------------------------------------------------|
|-2-2--4/5--75/7~-7/97--5/75--2-2--4/5--75/7~--7/97~--------|
|-2-2--4/5--75/7~-7/97--5/75--2-2--4/5--75/7~--7/97~--7/97-|   
|-0-0--2/3--53/5~-5/75--3/53--0-0--2/3--53/5~--5/75~--7/97-|    
|-----------------------------------------------------5/75-|

2nd guitar play this [this was played by jaymz] :
|----------------------------------------------------------------|
|----------------------------------------------------------------|
|-2-2--4/5--75/---7/97--5/75--5-2--4/5--75/----7/97~--------|
|-2-2--4/5--75/5~-7/97--5/75--5-2--4/5--75/5~--7/97~--7/97-|    
|-0-0--2/3--53/5~-5/75--3/53--3-0--2/3--53/5~--5/75~--7/97-|   
|--------------3~--------------------------3~---------5/75-|

Verse 1:
|-------0----------------3-3------3--------------------|[This will  
|---------1------------1/3-3h5bp3---5bp3-0-0---1h3-1-0-| work as the
|-----2-------------0------------------------0---------| plucking 
|---2-------------2------------------------------------| style will 
|-0---------0-2-3--------------------------------------| always 
|------------------------------------------------------| change]    

Verse 2:
|-------0-----------3---3--------3--------------------|[This is a 
|---------1-------1---1---1--1/3---5bp3-0-0---1h3-1-0-| bit
|-----2-------------------------------------0---------| different]
|---2-------------------------------------------------|
|-0---------0-2-3-------------------------------------|
|-----------------------------------------------------|

Verse 3:
1st guitar.....
|-5---5---3---3---3---3----------|                                   
|-5---5---3---3---3---3---5---5--|                                   
|-5---5---5---5---5---5---5---5--|                                   
|--7---7---5---5---5---5--6---6--|                                
|--------------------------7---7-|                                   
|--------------------------------|   

2nd guitar.....
|------------------------------|[the echo level must be
|-6bp5~~~---------1h3~~~-------| high while playing this] 
|------------------------------|    
|------------------------------|
|------------------------------|
|------------------------------|

Verse 4:
|-1---1---1---1---3---3---1---1----0-|
|-3---3---3---3---3---3---3---3----0-|                                
|-2---2---2---2---2---2---2---2----2-|
|--0---0---0---0---0---0---0---0---2-|
|----------------------------------0-|
|------------------------------------|

Verse 5:
|-----1-----------------------------0-|
|-------3---------------------------0-|
|-------------2-3-------------------2-|
|---0-------0------------5-----3-5--2-|
|-0-------0----------2-3-----2------0-|
|-----------------3--------1----------|

Chorus:
|--------------------------------------------------------|
|-0h1--1--1--1--1p0--0--0--0--1h3--3--3--3--3p1--1--1--1-|
|-0----0--0--0--0----0--0--0--2----2--2--2--2----2--2--2-|
|--------------------------------------------------------|
|--------------------------------------------------------|
|--------------------------------------------------------|

|-----------------------------------------------------------|
|-0h1--1--1--1--1p0--0--0--0--1h3--3--3--3--3--1--0--1--0---|
|-0----0--0--0--0----0--0--0--2----2--2--2----------------2-|
|-----------------------------------------------------------|
|-----------------------------------------------------------|
|-----------------------------------------------------------|

Chorus fill in:
|-------------------|
|-------------------|
|-2-4-4/5-5-5-5-4-0-|
|-------------------|
|-------------------|
|-------------------|

Solo:
|----------------------------------------------|
|-----------------------------13-15br-13----13-|
|-2-2-4-5-7b-5h7p5-4-5----/14------------14----|
|----------------------5-----------------------|
|----------------------------------------------|
|----------------------------------------------|

|------15-----15-----15------------------|
|-15b----15b----15b----15b-15br-13----13-|
|----------------------------------14----|
|----------------------------------------|
|----------------------------------------|
|----------------------------------------|

|-15b--15b-15b-15b------17------------17--------|
|-------------------/17----17-20b-/17----17-20b-|
|-----------------------------------------------|
|-----------------------------------------------|
|-----------------------------------------------|
|-----------------------------------------------|

|-----17------------------------------------|
|-/17----17-20br-17----------19-17----19-17-|
|-------------------19-17----19-17----19-17-|
|-------------------------19-------19-------|
|-------------------------------------------|
|-------------------------------------------|

|---------------------------------|
|----19-17------------------19-17-|
|----19-17----17-19br-17----19-17-|
|-19-------19------------19-------|
|---------------------------------|
|---------------------------------|

End:
|------------------------------------------------------|
|------------------------------------------------------|
|--2-2~--2-2-4-4~---2~--2-7-7~--2-2~--2-4~~------------|
|--2-2~--2-2-4-4~---2~--2-7-7~--2-2~--2-4~~--5~~--2~~--|
|--0-0~--0-0-2-2~---0~--0-5-5~--0-0~--0-2~~--5~~--2~~--|
|--------------------------------------------3~~-------|So here it is....the brand new Unforgiven II tablature....
If you guys have problem with this tab of mine, feel free to 
e-mail me at jeffrey_23@hotmail.com...................
Anyway, hope u can enjoy my tab....


======


The Unforgiven II
performed on ReLoad
tabbed by Lars Nielsen 

all guitar tune down 1/2 step

  Riff A (kirk)
eb---------------------------------------------------------------------------------
bb---------------------------------------------------------------------------------
gb---------------------------------------------------------------------------------
db--7--7/9/10-1210/12--1412--10/1210--7/9/10--1210/12--127--7/97-------------
ab---------------------------------------------------------------------------------
eb--5--5/7/8--108/10---1210--8//108---5/7/8---108/10--105--5/75-------------

  Rhy.fig 1 (james)     end fig 1 played together with Riff A
eb---------------------------------------------------------------------------------
bb---------------------------------------------------------------------------------
gb--2---2---5---5------------------------------------------------------------------
db--2---2---5---5--5---5---2---2---------------------------------------------------
ab--0---0---3---3--5---5---2---2---------------------------------------------------
eb-----------------3---3---0---0---------------------------------------------------

  Rhy.fig 2 Also the riff which is played during the verse
eb--------0-----------------3-3------3-----------------------------0---------------
bb----------1-----------3fb---3fbr-----3fbr---0-----1/31p0----------1-------------
gb--------------------0-------------------------0---2/44p0------2-----------------
db------2-----------2-----------------------------2------------2-------------------
ab--0---------0-2-3------------------------------------------0---------0-2-3-------
eb---------------------------------3--------0--------------------------------------
                                   T
                                end fig. 2
eb----------3-3------3-------------------------------------------------------------
bb------3fb---3fbr-----3fbr---0-----1/3-1------------------------------------------
gb----0-------------------------0---2/4-2------------------------------------------
db--2-----------------------------2------------------------------------------------
ab---------------------------------------------------------------------------------
eb-----------------3--------0------------------------------------------------------
                   T
   Rhy.fig 3  2nd verse "lay beside me" played together with fig.2 (2 times)
eb---------------------------------------------------------------------------------
bb---------------------------------------------------------------------------------
gb--------2--------0--------0--------1---------------------------------------------
db-----2--------2------------------------------------------------------------------
ab--0--------3-----------2--------2------------------------------------------------
eb--------------------3--------0---------------------------------------------------

  Rhy.fig 4 "no there's no sun...."
eb-------1------------------------------0------------------------------------------
bb---------3----------------------------0------------------------------------------
gb----2------2-------0-------0-------0--2------------------------------------------
db--0--------------3-------0-------3----2------------------------------------------
ab---------------3-------2-------3------0------------------------------------------
eb-------------1-------3-------1---------------------------------------------------

   chorus Rhy.fig 5                                       end
eb---------------------------------------------------------------------------------
bb--0-1---1-1--1---1-0---0-0--0---0-3---3-3--3---3-1---1-1--0----0--1---1-1--1-----
gb--2-2---2-2--2---2-2---0-0--0---0-0---0-0--0---0-0---0-0--0----2--2---2-2--2-----
db--2-2---2-2--2---2-2-------------------------------------------2--2---2-2--2-----
ab--0---0--------0-----0---2----3-----3--------3-----3---------0-0----0------------
eb---------------------------------------------------------------------------------
 PM     .        .     .        .     .        .     .         .      .
                               
eb---------------------------------------------------------------------------------
bb----1-0---0-0---0-----0-3---3-3--3-----------------------------------------------
gb----2-2---0-0---0-----0-0---0-0--0----/7-5-4-5~~--4------------------------------
db----2-2---------------------------------------------7---------------------------
ab--0-----0---2------3------3--------3---------------------------------------------
eb---------------------------------------------------------------------------------
 PM .     .          .      .        .

  Rhy.fig 6 "come lay beside me.."               end
eb---8------8-----8-----8-----7-----7-----7-----7------8------8-----8-----8-----7--
bb--10-----10-----8-----8-----8-----8-----9-----9-----10-----10-----8-----8-----8--
gb------9------9-----9-----9-----7-----7-----9-----9------9------9-----9-----9-----
db---------------------------------------------------------------------------------
ab---------------------------------------------------------------------------------
eb---------------------------------------------------------------------------------

eb-----7-----7-----7-------8p7--13p12--12-1210--10/13-13/15--12-------------------
bb-----8-----9-----9h10p9--8----13p12--12-1210--10/13-13/15--10-------------------
gb--7-----7-----9----------7-------------------------------------------------------
db---------------------------------------------------------------------------------
ab---------------------------------------------------------------------------------
eb---------------------------------------------------------------------------------

  solo
eb---------------------------------------------------------------------------------
bb--------------5-7hbr-------------------------------------------------^--20-------
gb--/7--7-7~~-7-5-7hbr-54-5-4h5p4---4-------------17-19fbr-17----17-19fb----19r---
db---------------------------------7---5~~-5-5-/19-------------19------------------
ab---------------------------------------------------------------------------------
eb---------------------------------------------------------------------------------

eb-----------------------------------------------------------------------------17--
bb--20-------20-------20---20----20-20-----------------20fb-20fb-20fb-20fb-/17-----
gb-----19fbr----19fbr-19fb----19----19r-19hbr-17----17-----------------------------
db-----------------------------------------------19--------------------------------
ab---------------------------------------------------------------------------------
eb---------------------------------------------------------------------------------

eb-----------------17-------------17---------17------------------------------------
bb--17-20fbr~~-/17----17-20fb-/17----17-20fb----20-17------------------19-------19-
gb----------------------------------------------------19fbp17-19p17----19-17----19-
db------------------------------------------------------------------19-------19----
ab---------------------------------------------------------------------------------
eb---------------------------------------------------------------------------------

eb---------------------------------------------------------------------------------
bb--------19-------19-----------------------------------------19-17---------------
gb--17----19-17----19-17----17-19-19fb-19p17----17-19fbp17----19-17----5----------
db-----19-------19-------19------------------19------------19--------/7---7-5---5--
ab----------------------------------------------------------------------------7----
eb---------------------------------------------------------------------------------

eb---------------------------------------------------------------------------------
bb---------------------------------------------------------------------------------
gb-------------------5/7-9-129/12--13--14--5/7--9--129/12--12-13--13-14----------
db---------------------------------------------------------------------------------
ab--7-6-5-3---5-3----3/5-7-107/10--11--12--3/5--7--107/10--10-11--11-12----------
eb----------5------5---------------------------------------------------------------
comments
print report bad tab
12 comments total. Showing first comments.
-1 reply
pill2comawhite wrote on January 10 2004, 12:00 am

***
this is pure ***

-1 reply
cocox2 wrote on May 9 2005, 12:00 am

awfull

im gonna tab the song
so you will see the *** you have done

-1 reply
hankey_pankey wrote on September 24 2007, 05:47 pm

wrong

I want to post or [tab]
guest
You may want to rate the tab now too:
select rating
Please do not post tabs as comments. Select "correction" instead!