Oops, an error
Loading. Please wait.

To Live Is To Die Tab

ver5
ver5
More versions @911Tabs.com
18,009 views 12 this week
1 commentread comment
1 2 3 4 5
accurate
x 3
Autoscroll
+/-
esc
set tempo
stop
Contributor
Difficulty
advanced
Hey! There's an official Ultimate Guitar app which is ideal
for learning songs when you're away from computer. Get the app
WARNING: You are trying to view
                                    content from Ultimate-Guitar.com
                                    in an unauthorized application,
                                    which is prohibited.

                                    Please use an official Ultimate
                                    Guitar Tabs application for iPhone,
                                    iPad or Android to access legitimate
                                    chords, guitar, bass, and drum tabs
                                    from Ultimate-Guitar.com database.

                                    Type "ultimate guitar tabs" in Apple
                                    App Store's or Android Market's
                                    search to find the application.
To Live is to Die
Metallica
...And Justice For All
Standard Tuning- EADGBe

-Intro-
James & Kirk- Acoustic
Fades in...
e|-7~-----7--------------------7~-----10-|
B|-7~-----7--7-----------7-----7~-----8--|
G|-7~--7--7-----7-----7--------7~--------|
D|-9~--9-----9-----------------9~--------|
A|-9~------------------------------------|
E|-7~--------------7--------7-----7------|

e|-10~-----10---------------------0-0--12~~-|
B|-10~---------------7-8-7h8p7----0-0--0~~~-|
G|-11~--------11-----7-7-7-----9--9-11-9~~~-|
D|-12~--12----------------------------------|
A|-12~------------12------------------------|
E|-10~--------------------------------------|

e|----------------7--7--7-7/12~--12~-----12----------8--7--10-7h10p7-|
B|----------8--8-----------------12~---------12--12--0--5--0-------7-|
G|----------9--9--7--7--7-7/9~~--12~---------9---9---0-----0---------|
D|-------------------------------14~--14-----9-----------------------|
A|---/9--7~~---------------------14~---------10----------------------|
E|-0------------------------------0~--0------------------------------|

e||--7-----7--------------------7-----10--10-----10--------------------0-0-[12]-|
B||o-7-----7--7-----------7-----7-----8---10---------------7-8-7h8p7---0-0--0---|
G||--7--7--7-----7-----7--------7---------11--------11-----7-7-7-----9-9-11-9---|
D||--9--9-----9-----------------9---------12--12--------------------------------|
A||o-9------------------------------------12-----------12-----------------------|
E||--7--------------7--------7-----7------10------------------------------------|

e|----------------7--7--7-7/12---12-----12----------8--7--10-7h10p7--||
B|----------8--8-----------------12---------12--12--0--5--0-------7-o||
G|----------9--9--7--7--7-7/9----12---------9---9---0-----0----------||
D|-------------------------------14--14-----9------------------------||
A|---/9--7~~---------------------14---------10----------------------o||
E|-0-----------------------------0---0-------------------------------||x3

James & Kirk- Dist.
e||-----------------------------------||
B||o---------------------------------o||
G||-----------------------------------||
D||--x-x-x-x-x-x-x-x-x-x-x-x-x-x-x-x--||
A||o-x-x-x-x-x-x-x-x-x-x-x-x-x-x-x-x-o||
E||--x-x-x-x-x-x-x-x-x-x-x-x-x-x-x-x--||

e||--------------------------------------------------------------------||
B||o------------------------------------------------------------------o||
G||--------------------------------------------------------------------||
D||---------x-x-------------x-x--------------x-x------------x----------||
A||o-4--4\--x-x--2-4--5--5--x-x--5\4--4--4\--x-x--2-4--7--7-x-7\5-5\4-o||
E||--2--2\--x-x--0-2--3--3--x-x--3\2--2--2\--x-x--0-2--5--5-x-5\3-3\2--||
                 - -                              - -
e|---------------------------------------------------------|
B|---------------------------------------------------------|
G|---------------------------------------------------------|
D|---------------------------------------------------------|
A|-4-4-4~-5-5-5~-4-4-4~-7-7-7~-4-4-4~-5-5-5~-4-4-4~-7-7-7~-|
E|-2-2-2~-3-3-3~-2-2-2~-5-5-5~-2-2-2~-3-3-3~-2-2-2~-5-5-5~-|
   - - -  - - -  - - -  - - -  - - -  - - -  - - -  - - -
e|-----------------------------------------------------|
B|-----------------------------------------------------|
G|-----------------------------------------------------|
D|-----------------------------------------------------|
A|-4-5--4-7--4-5--4-7----------------------------------|
E|-2-3--2-5--2-3--2-5--2-3-2-5-2-3-2-5-2-3-2-5-2-3-2-3-|
   -    -    -    -    - - - - - - - - - - - -
e||--------------------------------------------------------------------||
B||o------------------------------------------------------------------o||
G||--------------------------------------------------------------------||
D||---------x-x-------------x-x--------------x-x------------x----------||
A||o-4--4\--x-x--2-4--5--5--x-x--5\4--4--4\--x-x--2-4--7--7-x-7\5-5\4-o||
E||--2--2\--x-x--0-2--3--3--x-x--3\2--2--2\--x-x--0-2--5--5-x-5\3-3\2--||
                 - -                              - -
e|---------------------------------------------------------|
B|---------------------------------------------------------|
G|---------------------------------------------------------|
D|---------------------------------------------------------|
A|-4-4-4~-5-5-5~-4-4-4~-7-7-7~-4-4-4~-5-5-5~-4-4-4~-7-7-7~-|
E|-2-2-2~-3-3-3~-2-2-2~-5-5-5~-2-2-2~-3-3-3~-2-2-2~-5-5-5~-|
   - - -  - - -  - - -  - - -  - - -  - - -  - - -  - - -
e|-----------------------------------------------------|
B|-----------------------------------------------------|
G|-----------------------------------------------------|
D|-----------------------------------------------------|
A|-4-5--4-7--4-5--4-7----------------------------------|
E|-2-3--2-5--2-3--2-5--2-3-2-5-2-3-2-5-2-3-2-5-2-3-2-3-|
   -    -    -    -    - - - - - - - - - - - -

James
e||--------------------------------------------------------------------||
B||o------------------------------------------------------------------o||
G||--------------------------------------------------------------------||
D||---------x-x-------------x-x--------------x-x------------x----------||
A||o-4--4\--x-x--2-4--5--5--x-x--5\4--4--4\--x-x--2-4--7--7-x-7\5-5\4-o||
E||--2--2\--x-x--0-2--3--3--x-x--3\2--2--2\--x-x--0-2--5--5-x-5\3-3\2--||
Kirk             - -                              - -
e||---------------------------------------------------------------||
B||o-------------------------------------------------------------o||
G||-11\-6~~~~~~--4-6--7\-4~~~~~~--4-6--6\-3~~~~~~--3---3---2~~~~--||
D||--x--x--------x-x--x--x--------x-x--x--x--------x---x---x------||
A||o-9\-4~~~~~~--2-4--5\-2~~~~~~--2-4--4\-1~~~~~~--1---1---0~~~~-o||
E||---------------------------------------------------------------||

James & Kirk
e|---------------------------------------------|
B|---------------------------------------------|
G|---------------------------------------------|
D|-----2---5--4--2---2-----------x--x--6--5--4-|
A|-4-4-0-4-3--2--0-4-0--4~-4~-4--x--x--4--3--2-|
E|-2-2---2---------2----2~-2~-2--x--x----------|
   - -   -
e|---------------------------------------------------|
B|---------------------------------------------------|
G|---------------------------------------------------|
D|-----2---5--4--2---2-x-x-x-----------x--x--6--5--4-|
A|-4-4-0-4-3--2--0-4-0-x-x-x--4~-4~-4--x--x--4--3--2-|
E|-2-2---2---------2---x-x-x--2~-2~-2--x--x----------|
   - -   -

James
e||--------------------------------------------------------------------||
B||o------------------------------------------------------------------o||
G||--------------------------------------------------------------------||
D||---------x-x-------------x-x--------------x-x------------x----------||
A||o-4--4\--x-x--2-4--5--5--x-x--5\4--4--4\--x-x--2-4--7--7-x-7\5-5\4-o||
E||--2--2\--x-x--0-2--3--3--x-x--3\2--2--2\--x-x--0-2--5--5-x-5\3-3\2--||
Kirk             - -                              - -
e||--------------------------------------------------------------------||
B||o------------------------------------------------------------------o||
G||--9br------------10br-------------9br-------------------------------||
D||------11--------------12--------------11-------7-7~~-7h9\6-6h7p6----||
A||o--------9~~~~~~---------10~~~~~~--------9~~-9-------------------9-o||
E||--------------------------------------------------------------------||

James & Kirk
e|---------------------------------------------------------|
B|---------------------------------------------------------|
G|---------------------------------------------------------|
D|---------------------------------------------------------|
A|-4-4-4~-5-5-5~-4-4-4~-7-7-7~-4-4-4~-5-5-5~-4-4-4~-7-7-7~-|
E|-2-2-2~-3-3-3~-2-2-2~-5-5-5~-2-2-2~-3-3-3~-2-2-2~-5-5-5~-|
   - - -  - - -  - - -  - - -  - - -  - - -  - - -  - - -
e|-----------------------------------------------------|
B|-----------------------------------------------------|
G|-----------------------------------------------------|
D|-----------------------------------------------------|
A|-4-5--4-7--4-5--4-7----------------------------------|
E|-2-3--2-5--2-3--2-5--2-3-2-5-2-3-2-5-2-3-2-5-2-3-2-3-|
   -    -    -    -    - - - - - - - - - - - -

-Solo-
Kirk
e|-----------------------------------------------------------------------------|
B|-16b17====17====17====17==17=17=17r-16---------------------------------17b~~-|
G|-16b18====18====18====18==18=18=18r-16--14-16-16-16-16-16-14-16-16-14~-------|
D|-----------------------------------------------------------------------------|
A|-----------------------------------------------------------------------------|
E|-----------------------------------------------------------------------------|

e------------------------------------------------------------------------------|
B|-17-15-14--------------------------------------------------------------------|
G|----------16-14----14-16-16brp14---------14-16brp14------14/16~~-------14-16-|
D|----------------16---------------16~~-16------------16~~---------14h16-------|
A|-----------------------------------------------------------------------------|
E|-----------------------------------------------------------------------------|

e|----------------------------------------------------------------------------|
B|----------------------------------------------------------------------17b~~-|
G|--16brp14---------14---------14-16-16brp14-16-16brp14-16brp14-16brp14-------|
D|----------16~--16----16~--16------------------------------------------------|
A|----------------------------------------------------------------------------|
E|----------------------------------------------------------------------------|

e|------------------------------------------------------------------------------------|
B|-17-15-14---------------------------------------------------------------------------|
G|----------16-14----14-16-16br-14--------------14h16-14~~~~-------------14h16-14~~~~-|
D|----------------16----------------------14h16--------------------14h16--------------|
A|----------------------------------14h16--------------------14h16--------------------|
E|------------------------------------------------------------------------------------|

e|-----------------------------------------------------------------------------------------|
B|-------------------16b17r16----16b17r16----16b17r16----16b17r16----16b17r16----17b-17b~~-|
G|-------------14h16-16b18r16-14-16b18r16-14-16b18r16-14-16b18r16-14-16b18r16-14-----------|
D|-------14h16-----------------------------------------------------------------------------|
A|-14h16-----------------------------------------------------------------------------------|
E|-----------------------------------------------------------------------------------------|

e|------------------------------------------------------------------------------------------|
B|----------------------------------------------------------16-------16-16----------16------|
G|-------------------------------------14----16-14-14----16----14----16-16-14----16---------|
D|-------------------------14----16-14----16----------16----------16----------16-------14pb-|
A|-------12-14-14-12-16-14----16----------------------16------------------------------------|
E|-14-14------------------------------------------------------------------------------------|

e|------------17---------------------------------------------------------|
B|-----17-----------17---------------------------------------------------|
G|-16b----16b----16b---16b~-16-15-14-------------------------------------|
D|-----------------------------------16-15-14-------16-15-14-------------|
A|--------------------------------------------16-14----------16-15-14-12-|
E|-----------------------------------------------------------------------|

    T      T      T       T       T      T      T       T 
e||-14p9p6-14p9p6-15p10p7-15p10p7-14p9p6-14p9p6-15p10p7-15p10p7-||
B||o-----------------------------------------------------------o||
G||-------------------------------------------------------------||
D||-------------------------------------------------------------||
A||o-----------------------------------------------------------o||
E||-------------------------------------------------------------||

   T      T       T      T       T      T       T      T 
e|-14p9p6-15p10p7-14p9p6-15p10p7-14p9p6-15p10p7-14p9p6-15p10p7-|
B|-------------------------------------------------------------|
G|-------------------------------------------------------------|
D|-------------------------------------------------------------|
A|-------------------------------------------------------------|
E|-------------------------------------------------------------|

e|-14-14-14-15-15-15-17-17-17-19-19-19-20-20-20-22-22-22-22b-22b-22b~~-|
B|---------------------------------------------------------------------|
G|---------------------------------------------------------------------|
D|---------------------------------------------------------------------|
A|---------------------------------------------------------------------|
E|---------------------------------------------------------------------|
James Under Solo
e||--------------------------------------------------------------------||
B||o------------------------------------------------------------------o||
G||--------------------------------------------------------------------||
D||---------x-x-------------x-x--------------x-x------------x----------||
A||o-4--4\--x-x--2-4--5--5--x-x--5\4--4--4\--x-x--2-4--7--7-x-7\5-5\4-o||
E||--2--2\--x-x--0-2--3--3--x-x--3\2--2--2\--x-x--0-2--5--5-x-5\3-3\2--||x4
                 - -                              - -
e|---------------------------------------------------------|
B|---------------------------------------------------------|
G|---------------------------------------------------------|
D|---------------------------------------------------------|
A|-4-4-4~-5-5-5~-4-4-4~-7-7-7~-4-4-4~-5-5-5~-4-4-4~-7-7-7~-|
E|-2-2-2~-3-3-3~-2-2-2~-5-5-5~-2-2-2~-3-3-3~-2-2-2~-5-5-5~-|
   - - -  - - -  - - -  - - -  - - -  - - -  - - -  - - -
e|-----------------------------------------------------|
B|-----------------------------------------------------|
G|-----------------------------------------------------|
D|-----------------------------------------------------|
A|-4-5--4-7--4-5--4-7----------------------------------|
E|-2-3--2-5--2-3--2-5--2-3-2-5-2-3-2-5-2-3-2-5-2-3-2-3-|
   -    -    -    -    - - - - - - - - - - - -

James
e||--------------------------------------------------------------------||
B||o------------------------------------------------------------------o||
G||--------------------------------------------------------------------||
D||---------x-x-------------x-x--------------x-x------------x----------||
A||o-4--4\--x-x--2-4--5--5--x-x--5\4--4--4\--x-x--2-4--7--7-x-7\5-5\4-o||
E||--2--2\--x-x--0-2--3--3--x-x--3\2--2--2\--x-x--0-2--5--5-x-5\3-3\2--||
Kirk             - -                              - -
e||--------------------------------------------------------------------||
B||o------------------------------------------------------------------o||
G||--9br------------10br-------------9br-------------------------------||
D||------11--------------12--------------11-------7-7~~-7h9\6-6h7p6----||
A||o--------9~~~~~~---------10~~~~~~--------9~~-9-------------------9-o||
E||--------------------------------------------------------------------||

James
e|--------------------------------------------------|
B|--------------------------------------------------|
G|--------------------------------------------------|
D|-------x-x--------x-x--------x-x------------------|
A|-4--4--x-x--5--5--x-x--2--2--x-x--7~~~~~~-5~~~~~~-|
E|-2--2--x-x--3--3--x-x--0--0--x-x--5~~~~~~-3~~~~~~-|
Kirk
e|--------------------------------------------------------|
B|--------------------------------------------------------|
G|-9br----------10br-----------7br---------12brp9---------|
D|-----11------------12------------9--------------7h9p7\5-|
A|--------9~~~~---------10~~~~-------7~~~~----------------|
E|--------------------------------------------------------|

James
e|---------------------------------------------|
B|---------------------------------------------|
G|---------------------------------------------|
D|---------------------------------------------|
A|-7~~~~~~-----5~~~~~~-----2~~~~~~-----3~~~~~~-|
E|-5~~~~~~-5-5-3~~~~~~-3-3-0~~~~~~-0-1-1~~~~~~-|
Kirk       - -         - -         - -
e|---------------------------------------------|
B|---------------------------------------------|
G|-4h5~~~~-4h5-4h5p4~~~~-----------------------|
D|-----------------------7-5--5~~~~-5-5--7~~~~-|
A|---------------------------------------------|
E|---------------------------------------------|

James
e|---------------------------------------------|
B|---------------------------------------------|
G|---------------------------------------------|
D|---------------------------------------------|
A|-7~~~~~~-----5~~~~~~-----2~~~~~~-----5~~~~~~-|
E|-5~~~~~~-5-5-3~~~~~~-3-3-0~~~~~~-0-1-3~~~~~~-|
Kirk       - -         - -         - -
e|---------------------------------------------|
B|---------------------------------------------|
G|-4h5~~~~-5h7-7~~~~-4---------------4---------|
D|---------------------5--5~~~-5-5-5---5~~-5-5-|
A|---------------------------------------------|
E|---------------------------------------------|

James
e|---------------------------------------------|
B|---------------------------------------------|
G|---------------------------------------------|
D|---------------------------------------------|
A|-7~~~~~~-----5~~~~~~-----2~~~~~~-----3~~~~~~-|
E|-5~~~~~~-5-5-3~~~~~~-3-3-0~~~~~~-0-1-1~~~~~~-|
Kirk       - -         - -         - -
e|---------------------------------------------|
B|---------------------------------------------|
G|-7h9~~~~-7h9-7h9p7~~~~-5-4--4~~~~-4-4--5~~~~-|
D|---------------------------------------------|
A|---------------------------------------------|
E|---------------------------------------------|
Gtr 3
e|---------------------------------------------|
B|---------------------------------------------|
G|-4h5~~~~-4h5-4h5p4~~~~-----------------------|
D|-----------------------7-5--5~~~~-5-5--7~~~~-|
A|---------------------------------------------|
E|---------------------------------------------|

James
e|---------------------------------------------|
B|---------------------------------------------|
G|---------------------------------------------|
D|---------------------------------------------|
A|-7~~~~~~-----5~~~~~~-----2~~~~~~-----5~~~~-5-|
E|-5~~~~~~-5-5-3~~~~~~-3-3-0~~~~~~-0-3-3~~~~-3-|
Kirk       - -         - -         - -
e|---------------------------------------------|
B|---------------------------------------------|
G|-7h9~~~~-9/12-12~~~~-7-4--4~~~-4-4-9-5~~~~~~-|
D|---------------------------------------------|
A|---------------------------------------------|
E|---------------------------------------------|
Gtr 3
e|---------------------------------------------|
B|---------------------------------------------|
G|-4h5~~~~-5h7---7~~~~-4-------------4---------|
D|-----------------------5--5~~~-5-5---5~~~~~~-|
A|---------------------------------------------|
E|---------------------------------------------|


James- Clean
e|-------------------------------------------------|
B|-0h1-----0h1p0---0-------------------------------|
G|-----2---------2---2-----0----0-----0----0h2-----|
D|-------2------------------------2------------0---|
A|-0--------------------------------2------------0-|
E|-----------------3----3-----3-0--------0-1-------|

e|---------------------------------------------------|
B|-0h1------3---3-----0---------------0---------3----|
G|-----2----------------0----0-----0-----0-----------|
D|-------2---------------------2------------0--------|
A|-0-----------------------------2----2-------2----0-|
E|------------0-3--3-------0-0-----------3-----------|

James
e|-------------------------------------------------|
B|-0h1-----0h1p0---0-------------------------------|
G|-----2---------2---2-----0----0-----0----0h2-----|
D|-------2------------------------2------------0---|
A|-0--------------------------------2------------0-|
E|-----------------3----3-----3-0--------0-1-------|
Kirk- Light Dist. (vol. swells)
e|-------------------------------------------------|
B|-------------------------------------------------|
G|-------------------------------------------------|
D|-10<<~~~~~~--12<<~~~~~~--------------------------|
A|--7<<~~~~~~--10<<~~~~~~--10<<~~~~~~--12<<~~~~~~--|
E|--------------------------7<<~~~~~~---8<<~~~~~~--|

James
e|---------------------------------------------------|
B|-0h1------3---3-----0---------------0---------3----|
G|-----2----------------0----0-----0-----0-----------|
D|-------2---------------------2------------0--------|
A|-0-----------------------------2----2-------2----0-|
E|------------0-3--3-------0-0-----------3-----------|
Kirk
e|-------------------------------------------------|
B|-------------------------------------------------|
G|-------------------------------------------------|
D|-10<<~~~~~~--12<<~~~~~~--------------9<<~~~~~~~--|
A|--7<<~~~~~~--10<<~~~~~~--10<<~~~~~~--5<<~~~~~~~--|
E|--------------------------7<<~~~~~~--------------|

James
e|-------------------------------------------------|
B|-0h1-----0h1p0---0-------------------------------|
G|-----2---------2---2-----0----0-----0----0h2-----|
D|-------2------------------------2------------0---|
A|-0--------------------------------2------------0-|
E|-----------------3----3-----3-0--------0-1-------|
Kirk
e|-------------------------------------------------|
B|-------------------------------------------------|
G|-------------------------------------------------|
D|-10<<~~~~~~--12<<~~~~~~--------------------------|
A|--7<<~~~~~~--10<<~~~~~~--10<<~~~~~~--10<<~~~~~~--|
E|--------------------------7<<~~~~~~---7<<~~~~~~--|

James
e|---------------------------------------------------|
B|-0h1------3---3-----0---------------0---------3----|
G|-----2----------------0----0-----0-----0-----------|
D|-------2---------------------2------------0--------|
A|-0-----------------------------2----2-------2----0-|
E|------------0-3--3-------0-0-----------3-----------|
Kirk
e|-------------------------------------------------|
B|-------------------------------------------------|
G|-------------------------------------------------|
D|-10<<~~~~~~--12<<~~~~~~--------------9<<~~~~~~~--|
A|--7<<~~~~~~--10<<~~~~~~--10<<~~~~~~--5<<~~~~~~~--|
E|--------------------------7<<~~~~~~--------------|

James
e|-------------------------------------------------|
B|-0h1-----0h1p0---0-------------------------------|
G|-----2---------2---2-----0----0-----0----0h2-----|
D|-------2------------------------2------------0---|
A|-0--------------------------------2------------0-|
E|-----------------3----3-----3-0--------0-1-------|
Kirk
e|-------------------------------------------------|
B|-------------------------------------------------|
G|-------------------------------------------------|
D|-10<<~~~~~~--12<<~~~~~~--------------------------|
A|--7<<~~~~~~--10<<~~~~~~--10<<~~~~~~--10<<~~~~~~--|
E|--------------------------7<<~~~~~~---7<<~~~~~~--|

James
e|---------------------------------------------------|
B|-0h1------3---3-----0---------------0---------3----|
G|-----2----------------0----0-----0-----0-----------|
D|-------2---------------------2------------0--------|
A|-0-----------------------------2----2-------2----0-|
E|------------0-3--3-------0-0-----------3-----------|
Kirk
e|-------------------------------------------------|
B|-------------------------------------------------|
G|-------------------------------------------------|
D|-10<<~~~~~~--12<<~~~~~~--------------9<<~~~~~~~--|
A|--7<<~~~~~~--10<<~~~~~~--10<<~~~~~~--5<<~~~~~~~--|
E|--------------------------7<<~~~~~~--------------|

-James' Solo- Light Dist.
e|------------------------------------------------------------------|
B|------------------------------------------------------------------|
G|-7h9~~~~-9-7\5--5h7\4--2--0h2--4--5-5-5--4---5--5p4---------------|
D|-------------------------------------------5---------5--5/7~~-5h7-|
A|------------------------------------------------------------------|
E|------------------------------------------------------------------|

e|----------------------------------------------------------------------|
B|----------------------------------------------------------------------|
G|-4/5-5-5/7-7/9-9-9h10-9~~~--9-10-9h10p9--7\5--5\4---5p4---------------|
D|--------------------------------------------------5-----5~~~--5h7p5-5-|
A|----------------------------------------------------------------------|
E|----------------------------------------------------------------------|

e|------------------------------------------------------------|
B|------------------------------------------------------------|
G|------------4h5p4---4h5p4-4-5-7-7/9--7--9--9b~~-7-----------|
D|-5h7~~~-7-7-------5-------------------------------9pb-7-5/9-|
A|------------------------------------------------------------|
E|------------------------------------------------------------|
          - -
e|----------------------------------------------------------------|
B|----------------12h13p12----12h13-12~~~~-12h13p12~~-12h13p12----|
G|-12h14~~~-14-14----------12----------------------------------12-|
D|----------------------------------------------------------------|
A|----------------------------------------------------------------|
E|----------------------------------------------------------------|

e|-----------------------------------------|
B|-----------13p12-------15--13--12--------|
G|-12~~~~-12-------12-12------------14b~~~-|
D|-----------------------------------------|
A|-----------------------------------------|
E|-----------------------------------------|
Kirk Under Solo
e||--------------------------------------------------|
B||o-0h1-----0h1p0---0-------------------------------|
G||------2---------2---2-----0----0-----0----0h2-----|
D||--------2------------------------2------------0---|
A||o-0--------------------------------2------------0-|
E||------------------3----3-----3-0--------0-1-------|
Gtr 3
e||--------------------------------------------------|
B||o-------------------------------------------------|
G||--------------------------------------------------|
D||--10<<~~~~~~--12<<~~~~~~--------------------------|
A||o--7<<~~~~~~--10<<~~~~~~--10<<~~~~~~--10<<~~~~~~--|
E||---------------------------7<<~~~~~~---7<<~~~~~~--|

Kirk
e|----------------------------------------------------||
B|-0h1------3---3-----0---------------0---------3----o||
G|-----2----------------0----0-----0-----0------------||
D|-------2---------------------2------------0---------||
A|-0-----------------------------2----2-------2----0-o||
E|------------0-3--3-------0-0-----------3------------||
Gtr 3
e|-------------------------------------------------||
B|------------------------------------------------o||
G|-------------------------------------------------||
D|-10<<~~~~~~--12<<~~~~~~--------------9<<~~~~~~~--||
A|--7<<~~~~~~--10<<~~~~~~--10<<~~~~~~--5<<~~~~~~~-o||
E|--------------------------7<<~~~~~~--------------||
  

James- Dist.
e|---------------------------------------------|
B|---------------------------------------------|
G|---------------------------------------------|
D|---------------------------------------------|
A|-7~~~~~~-----5~~~~~~-----2~~~~~~-----3~~~~~~-|
E|-5~~~~~~-5-5-3~~~~~~-3-3-0~~~~~~-0-1-1~~~~~~-|
           - -         - -         - -
Kirk- Dist.
e|---------------------------------------------|
B|---------------------------------------------|
G|-4h5~~~~-4h5-4h5p4~~~~-----------------------|
D|-----------------------7-5--5~~~~-5-5--7~~~~-|
A|---------------------------------------------|
E|---------------------------------------------|

James
e|---------------------------------------------|
B|---------------------------------------------|
G|---------------------------------------------|
D|---------------------------------------------|
A|-7~~~~~~-----5~~~~~~-----2~~~~~~-----5~~~~~~-|
E|-5~~~~~~-5-5-3~~~~~~-3-3-0~~~~~~-0-1-3~~~~~~-|
           - -         - -         - -
Kirk
e|---------------------------------------------|
B|---------------------------------------------|
G|-4h5~~~~-5h7-7~~~~-4---------------4---------|
D|---------------------5--5~~~-5-5-5---5~~-5-5-|
A|---------------------------------------------|
E|---------------------------------------------|

James
e|---------------------------------------------|
B|---------------------------------------------|
G|---------------------------------------------|
D|---------------------------------------------|
A|-7~~~~~~-----5~~~~~~-----2~~~~~~-----3~~~~~~-|
E|-5~~~~~~-5-5-3~~~~~~-3-3-0~~~~~~-0-1-1~~~~~~-|
           - -         - -         - -
Kirk
e|---------------------------------------------|
B|---------------------------------------------|
G|-7h9~~~~-7h9-7h9p7~~~~-5-4--4~~~~-4-4--5~~~~-|
D|---------------------------------------------|
A|---------------------------------------------|
E|---------------------------------------------|
Gtr 3
e|---------------------------------------------|
B|---------------------------------------------|
G|-4h5~~~~-4h5-4h5p4~~~~-----------------------|
D|-----------------------7-5--5~~~~-5-5--7~~~~-|
A|---------------------------------------------|
E|---------------------------------------------|

James
e|---------------------------------------------|
B|---------------------------------------------|
G|---------------------------------------------|
D|---------------------------------------------|
A|-7~~~~~~-----5~~~~~~-----2~~~~~~-----5~~~~-5-|
E|-5~~~~~~-5-5-3~~~~~~-3-3-0~~~~~~-0-3-3~~~~-3-|
           - -         - -         - -
Kirk
e|---------------------------------------------|
B|-----------------------------------5---------|
G|-7h9~~~~-9/12-12~~~~-7-4--4~~~-4-4---5~~~~~~-|
D|---------------------------------------------|
A|---------------------------------------------|
E|---------------------------------------------|
Gtr 3
e|---------------------------------------------|
B|---------------------------------------------|
G|-4h5~~~~-5h7---7~~~~-4-------------4---------|
D|-----------------------5--5~~~-5-5---5~~~~~~-|
A|---------------------------------------------|
E|---------------------------------------------|


James
e||-----------------------------------------------------------------||
B||o---------------------------------------------------------------o||
G||-------------------9---------9--------------------------------9--||
D||--7--------10-7-10---10~~-10---10------------9-10-10/12-12-12----||
A||o----7~~-7------------------------10~~-10-10--------------------o||
E||-----------------------------------------------------------------||
Kirk        - -  - -  -
e||-----------------------------------------------------------------||
B||o---------------------------------------------------------------o||
G||-----------9----9-12-9~~~-9-12-9-------------7-9--9/10--10-10-12-||
D||--10-7~~-7---10-------------------9~~~-9--9----------------------||
A||o---------------------------------------------------------------o||
E||-----------------------------------------------------------------||
            - - -  - -

James
e|---------------------------------------------------------------------|
B|---------------------------------------------------------------------|
G|-----------------------11---------11----------------------9~~-9-9-11-|
D|-9-------9-12-9~~-9-12----12~~-12----12-11~~~-11-11-12-12------------|
A|---9~~-9-------------------------------------------------------------|
E|---------------------------------------------------------------------|
Kirk
e|------------------------------------------------------------------------|
B|-----------------------10---------10---------------------------------10-|
G|-7-------7-11-7~~-7-11----11~~-11----11--9~~~-9--9--11-11-12~~-12-12----|
D|---9~~-9----------------------------------------------------------------|
A|------------------------------------------------------------------------|
E|------------------------------------------------------------------------|

James
e|-------------------------------------------------------------------|
B|-------------------------------------------------------------------|
G|-------------------------------------------------------------------|
D|-9-------9---12-9~~-9-12-9-9-------9---9-------9---12-9~~-9-12-9~~-|
A|---9~~-9---9-----------------9~~-9---9---9~~-9---9-----------------|
E|-------------------------------------------------------------------|
Kirk
e|-------------------------------------------------------------------------------|
B|-------------------------------------------------------------------------------|
G|---------------11---------11--------------------------------11---------11------|
D|-12-9~~-9-12-9----12~~-12----12-12-9~~-9-12-9-12-9~~-9-12-9----12~~-12----12~~-|
A|-------------------------------------------------------------------------------|
E|-------------------------------------------------------------------------------|
  
James
e|------------------------------------------------------------|
B|-----------------------------------------11-11-11-11/12~~~~-|
G|-7-------7--------------------------------------------------|
D|-9-9~~-9-9-9-11~~-11-11-11-11/12-11~~~~~--------------------|
A|---9~~-9---9-9~~~-9--9--9--9-----9~~~~~~--------------------|
E|------------------------------------------------------------|
Kirk
e|------------------------------------------9--9--9--9/10~~~~-|
B|-12---------12---------------------11~~~~-------------------|
G|-11-11~~-11-11-11~~-11-11-11-11/12-11~~~~-------------------|
D|----12~~-12----12~~-----------------------------------------|
A|------------------------------------------------------------|
E|------------------------------------------------------------|

James & Kirk
e||--------------------------------------------------------------------||
B||o------------------------------------------------------------------o||
G||--------------------------------------------------------------------||
D||---------x-x-------------x-x--------------x-x------------x----------||
A||o-4--4\--x-x--2-4--5--5--x-x--5\4--4--4\--x-x--2-4--7--7-x-7\5-5\4-o||
E||--2--2\--x-x--0-2--3--3--x-x--3\2--2--2\--x-x--0-2--5--5-x-5\3-3\2--||
                 - -                              - -
-"When a man lies, he murders some part of the world.
-These are the pale deaths, which men miscall their lives.
-All this I cannot bear to witness any longer.
-Cannot the kingdom of salvation take me home?"

James
e||--------------------------------------------------------------------||
B||o------------------------------------------------------------------o||
G||--------------------------------------------------------------------||
D||---------x-x-------------x-x--------------x-x------------x----------||
A||o-4--4\--x-x--2-4--5--5--x-x--5\4--4--4\--x-x--2-4--7--7-x-7\5-5\4-o||
E||--2--2\--x-x--0-2--3--3--x-x--3\2--2--2\--x-x--0-2--5--5-x-5\3-3\2--||
Kirk             - -                              - -
e||---------------------------------------------------------------||
B||o-------------------------------------------------------------o||
G||-11\-6~~~~~~--4-6--7\-4~~~~~~--4-6--6\-3~~~~~~--3---3---2~~~~--||
D||--x--x--------x-x--x--x--------x-x--x--x--------x---x---x------||
A||o-9\-4~~~~~~--2-4--5\-2~~~~~~--2-4--4\-1~~~~~~--1---1---0~~~~-o||
E||---------------------------------------------------------------||

James & Kirk
e|---------------------------------------------|
B|---------------------------------------------|
G|---------------------------------------------|
D|-----2---5--4--2---2-----------x--x--6--5--4-|
A|-4-4-0-4-3--2--0-4-0--4~-4~-4--x--x--4--3--2-|
E|-2-2---2---------2----2~-2~-2--x--x----------|
   - -   -
e|---------------------------------------------------|
B|---------------------------------------------------|
G|---------------------------------------------------|
D|-----2---5--4--2---2-x-x-x-----------x--x--6--5--4-|
A|-4-4-0-4-3--2--0-4-0-x-x-x--4~-4~-4--x--x--4--3--2-|
E|-2-2---2---------2---x-x-x--2~-2~-2--x--x----------|
   - -   -

James
e|-----------------------------------------------------------------------|
B|-----------------------------------------------------------------------|
G|-----------------------------------------------------------------------|
D|-----------------------------------------------------------------------|
A|-4~~~~~~~~~~~~~~~~~-5~~~~~~~~~~~~~~~~~~~~~-4~~~~~~~~~~-7~~~~~~\5~~~~\4-|
E|-2~~~~~~~~~~~~~~~~~-3~~~~~~~~~~~~~~~~~~~~~-2~~~~~~~~~~-5~~~~~~\3~~~~\2-|
Kirk
e|----------------------------------------------------------------------------|
B|----------------------------------------------------------------------------|
G|-9br----------------10br-------------------9br------------------------------|
D|-----11------------------12--------------------11-------7-7~~-7h9\6-6h7p6---|
A|--------9~~-9-9p7-----------10~~-10p9p7-----------9~~-9-------------------9-|
E|------------------9---------------------9-----------------------------------|

James
e|----------------------------------------|
B|----------------------------------------|
G|----------------------------------------|
D|----------------------------------------|
A|-4~~~~~~~~~~~-5~~~~~~~~~~~~~~~~~~~-2-4\-|
E|-2~~~~~~~~~~~-3~~~~~~~~~~~~~~~~~~~-0-2\-|
Kirk
e|----------------------------------------|
B|----------------------------------------|
G|-9br----------10br-----------7br--------|
D|-----11------------12------------9------|
A|--------9~~~~---------10~~~~-------7-9\-|
E|----------------------------------------|

James & Kirk
e|--------------------------------------------------------------|
B|--------------------------------------------------------------|
G|--------------------------------------------------------------|
D|-x--x--x------------x-x--------------x-x------------x---------|
A|-x--x--x-2-4--5--5--x-x--5\4--4--4\--x-x--2-4--7--7-x-7\5-5\4-|
E|-x--x--x-0-2--3--3--x-x--3\2--2--2\--x-x--0-2--5--5-x-5\3-3\2-|
           - -                              - -
e|------------------------------------------------------------------|
B|------------------------------------------------------------------|
G|------------------------------------------------------------------|
D|--------x-x-------------x-x--------------x-x------------x---------|
A|-4--4\--x-x--2-4--5--5--x-x--5\4--4--4\--x-x--2-4--7--7-x-7\5-5\4-|
E|-2--2\--x-x--0-2--3--3--x-x--3\2--2--2\--x-x--0-2--5--5-x-5\3-3\2-|
               - -                              - -
e||---------------------------------------||
B||o-------------------------------------o||
G||---------------------------------------||
D||---------------------------------------||
A||o-4-4~~~~~~~-4-4-------4-4~~~~~~~-4-4-o||
E||--2-2~~~~~~~-2-2-------2-2~~~~~~~-2-2--||x4

James & Kirk- Acoustic 4th time of ^^^
Fades in...
e|-7~-----7--------------------7~-----10-|
B|-7~-----7--7-----------7-----7~-----8--|
G|-7~--7--7-----7-----7--------7~--------|
D|-9~--9-----9-----------------9~--------|
A|-9~------------------------------------|
E|-7~--------------7--------7-----7------|

e|-10~-----10---------------------0-0--12~~-|
B|-10~---------------7-8-7h8p7----0-0--0~~~-|
G|-11~--------11-----7-7-7-----9--9-11-9~~~-|
D|-12~--12----------------------------------|
A|-12~------------12------------------------|
E|-10~--------------------------------------|

e|----------------7--7--7-7/12~--12~-----12----------8--7--10-7h10p7-|
B|----------8--8-----------------12~---------12--12--0--5--0-------7-|
G|----------9--9--7--7--7-7/9~~--12~---------9---9---0-----0---------|
D|-------------------------------14~--14-----9-----------------------|
A|---/9--7~~---------------------14~---------10----------------------|
E|-0------------------------------0~--0------------------------------|

e||--7-----7--------------------7-----10--10-----10--------------------0-0-[12]-|
B||o-7-----7--7-----------7-----7-----8---10---------------7-8-7h8p7---0-0--0---|
G||--7--7--7-----7-----7--------7---------11--------11-----7-7-7-----9-9-11-9---|
D||--9--9-----9-----------------9---------12--12--------------------------------|
A||o-9------------------------------------12-----------12-----------------------|
E||--7--------------7--------7-----7------10------------------------------------|

e|----------------7--7--7-7/12---12-----12----------8--7--10-7h10p7--||
B|----------8--8-----------------12---------12--12--0--5--0-------7-o||
G|----------9--9--7--7--7-7/9----12---------9---9---0-----0----------||
D|-------------------------------14--14-----9------------------------||
A|---/9--7~~---------------------14---------10----------------------o||
E|-0-----------------------------0---0-------------------------------||x3
comments
We did not receive enough feedback on this tab! Please rate:
print report bad tab
1 2 3 4 5
1 comment total.
0 reply
Vitooch wrote on July 10 2009, 06:40 pm

siiick tab. spot on

I want to post or [tab]
guest
You may want to rate the tab now too:
select rating
Please do not post tabs as comments. Select "correction" instead!