Oops, an error
Loading. Please wait.

Too Late Too Late Tab

ver2
ver2

Whole song

Interactive

More versions @911Tabs.com
3,979 views 1 this week
no commentswrite comment
1 2 3 4 5
accurate
x 4
Autoscroll
+/-
esc
set tempo
stop
Contributor
Hey! There's an official Ultimate Guitar app which is ideal
for learning songs when you're away from computer. Get the app
WARNING: You are trying to view
                                    content from Ultimate-Guitar.com
                                    in an unauthorized application,
                                    which is prohibited.

                                    Please use an official Ultimate
                                    Guitar Tabs application for iPhone,
                                    iPad or Android to access legitimate
                                    chords, guitar, bass, and drum tabs
                                    from Ultimate-Guitar.com database.

                                    Type "ultimate guitar tabs" in Apple
                                    App Store's or Android Market's
                                    search to find the application.
Transcribed by www.mikesguitarsite.co.uk 

E5        x 7 9 9 x x 
C5        x 3 5 5 x x 
B5        x 2 4 4 x x 
A5        x 0 2 2 x x 
D5        x 5 7 7 x x 

Gtr I (Eb Ab Db Gb Bb Eb) - 'James Hetfield - Rhythm / Lead w/dist'
Gtr II (Eb Ab Db Gb Bb Eb) - 'Kirk Hammett - Rhythm / Lead w/dist'

Intro
    Q=192
   4/4
    Gtr I
               ~~~~~~~~~     PM--|
    E E E E Q  Q    +Q   E E E E E E  4x
||----------------|-------------------||
||o---------------|------------------o||
||----------5-----|-------------------||
||--5h7-7-7-5--7--|-(7)--7-7-------5--||
||o-0-0-0-0----0--|-(0)--0-0-5-6-7---o||
||----------------|-------------------||
 |-Rhy Fig 1            end Rhy Fig 1-|

w/Rhy Fig 1 x4
  Gtr II
   E  E  E E E E E E   +H       E E E E   E E E E Q      Q    +H       E E E E
|--------------------|------------------|-------------------|------------------|
|--------------------|------------------|-------------------|------------------|
|-<7>------------5---|------------------|---------5b5.5-----|------------------|
|----<7>-----5h7---7-|-(7)------------5-|-5h7-7-7--------7--|-(7)------------5-|
|--------7-7---------|----------5-6-7---|-------------------|----------5-6-7---|
|--------------------|------------------|-------------------|------------------|


  E E E E Q      Q    +H       E E E E   E E E E Q      Q    +H       E E E E
|-------------------|------------------|-------------------|------------------|
|-------------------|------------------|-------------------|------------------|
|---------5b5.5-----|------------------|---------5b5.5-----|------------------|
|-5h7-7-7--------7--|-(7)------------5-|-5h7-7-7--------7--|-(7)------------5-|
|-------------------|----------5-6-7---|-------------------|----------5-6-7---|
|-------------------|------------------|-------------------|------------------|


    Gtrs I, II
    E E E E E E E E   E E E E E E E E  4x
||------------------|------------------||
||o-----------------|-----------------o||
||------------------|------------------||
||--5h7-7-7-7-7-7-7-|-7-7-7-7-------5--||
||o-0---0-0-0-0-0-0-|-0-0-0-0-5-6-7---o||
||------------------|------------------||
 |-Rhy Fig 2            end Rhy Fig 2 -|

   Verse 1, 2, 3
    $
||--
||o- Rhy Fig 2 x8
||--
||--
||o-
||--


 Chorus
  Gtrs I, II
|-Rhy Fig 3
  E5              C5              B5              A5
  Q  Q  +E E Q    Q  Q  +E E Q    Q  Q  +E E Q    Q  Q  +E E E E
  |  |   | | |    |  |   | | |    |  |   | | |    |  |   | | | |
  /  /   / / /    /  /   / / /    /  /   / / /    /  /   / / / /
|---------------|---------------|---------------|----------------|


                                                 1.
                                         To Coda
  E5              D5              B5              end Rhy Fig 3-|
  Q  Q  +E E Q    Q  Q  +E E Q    Q  E E Q  E E   Q  E E E E Q
  |  |   | | |    |  |   | | |    |  | | |  | |   |  | | | | |
  /  /   / / /    /  /   / / /    /  / / /  / /   /  / / / / /
|---------------|---------------|---------------|---------------|


Rhy Fig 1 x2


             ~~~~~~~~~     PM--|                ~~~~~~~~~     PM--|
  E E E E Q  Q    +Q   E E E E E E   E E E E Q  Q    +Q   E E E E E E
|---------------|------------------|---------------|-------------------||
|---------------|------------------|---------------|------------------o||
|---------5-----|------------------|---------5-----|-------------------||
|-5h7-7-7-5--7--|-(7)--7-7-------5-|-5h7-7-7-5--7--|-(7)--7-7-------5--||
|-0-0-0-0----0--|-(0)--0-0-5-6-7---|-0-0-0-0----0--|-(0)--0-0-5-6-7---o||
|---------------|------------------|---------------|-------------------||


                  Guitar Solo
  2.
  Gtr II
  Q  E E Q  E E    Q   Q      H
|---------------||----------------------|
|---------------||----------------------|
|---------------||-----9b11---9b11------|
|-4--4-4-4--4-4-||----------------------|
|-2--2-2-2--2-2-||----------------------|
|---------------||----------------------|
|
| Gtr I
| Q  E E Q  E E    E E E    E E    E Q
|---------------||----------------------|
|---------------||----------------------|
|---------------||-5--------------------|
|-4--4-4-4--4-4-||-5-7-0----------------|
|-2--2-2-2--2-2-||-----0----4-7----7-9--|
|---------------||----------2-5------7--|


   Q.      E     +Q    +E  +E    Q     +E  E     +E  E  Q
|------------------------------|---------------------------------|
|------------------------------|---------------------------------|
|--9b11----9b11==(9)---(9)r(9)-|-9b11r=(9)-9b11==(9)-9r-9b11=====|
|------------------------------|---------------------------------|
|------------------------------|---------------------------------|
|------------------------------|---------------------------------|
|
|                                          PM-----------------|
| +Q     E E      E  E  E   E    Q      E  E      E  E  E     E
|------------------------------|---------------------------------|
|------------------------------|---------------------------------|
|------------------------------|---------------------------------|
|------------------------------|---------------------------------|
|-(9)----9---------------------|-9------9------------------------|
|-(7)----7-0------0--2--5---5--|-7------7--7------7--7--7-----7--|


              ~~~~~~
  +E  +S  S E E +Q    E E   E E E E E E E E       +E   E  S S E E  E E  E
|-------------------------|---------------------|------7-------------7-10-|
|-------------------------|---------------------|--------10p7---7-10------|
|-(9)r(9)p7---------------|---------7---7-9b11==|=(9)r--------9-----------|
|-----------9-9-(9)---9-9-|-7h9-9-9---9---------|-------------------------|
|-------------------------|---------------------|-------------------------|
|-------------------------|---------------------|-------------------------|
|
|  PM---------------|                                           PM---|
|  E   E    E E  E  E E E   E E E E Q   Q         +H            E  E E  E
|-------------------------|---------------------|-------------------------|
|-------------------------|---------------------|-------------------------|
|-------------------------|---------------------|-------------------------|
|-------------------------|---------------------|-------------------------|
|--9---9------------------|-----9-9-9---9-------|-(9)-----------0-------0-|
|--7---7----7-7--0--2-5-6-|-5h7-7-7-7---7-------|-(7)--------------1-2----|


                                                   ~~~~~~
  S  S S  S E E  Q     E  E        +E   E  E    E  Q        +E    E
|-7h10p7----7-7--------7--------|-------7-------7--------------------|
|--------10-7-7-10b12----10b12==|=(10)r---10b12---10b12====(10)r\-4s=|
|-------------------------------|------------------------------------|
|-------------------------------|------------------------------------|
|-------------------------------|------------------------------------|
|-------------------------------|------------------------------------|
|
|                                                  PM------|
| E    E    E E  Q     Q           +H              E     E   E    E
|-------------------------------|------------------------------------|
|-------------------------------|------------------------------------|
|-------------------------------|------------------------------------|
|-------------------------------|------------------------------------|
|----------------------9--------|--(9)-------------------------------|
|-5s===7----7-7-10-----7--------|--(7)-------------0-----1---2----5--|
|-Rhy Fig 4                                            end Rhy Fig 4-|

w/Rhy Fig 4 x3
                   ~~~~~
   Q    E  E      +Q     E  E
|------12---------------------|
|-15------15b17==(15)r--12-15-|
|-----------------------------|
|-----------------------------|
|-----------------------------|
|-----------------------------|


                     ~~~~                                         ~~
   E   E  E  E      +Q     +S   +S   E    S  S  E  E  E  E  E  E  E
|--------------------------------------|-------------------14-17-14-|
|--------------------------------------|-------------14-17----------|
|-12-----12-14b16==(14)---(14)r(14)p12-|----12-14s16----------------|
|-----14-------------------------------|-14-------------------------|
|--------------------------------------|----------------------------|
|--------------------------------------|----------------------------|


    ~~~~                                                         ~~
   +Q.    +E   Q    Q      E  E  a  Q    E  E  E  E    E   E  E  E  +Q     E E
|-(14)---(14)\----------|-14------------------------|--------------------------|
|--------------5s==17---|----14-14h17---14----14----|--------------------------|
|-----------------------|------------------16----14-|-----16----14-(14)\-------|
|-----------------------|---------------------------|-16-----16------------4s8-|
|-----------------------|---------------------------|--------------------------|
|-----------------------|---------------------------|--------------------------|


                                PM----|
  E E E E  Q       Q     +Q     E E E E  Q       Q  E E Q    Q
|----------------------|----------------------||----------------|
|----------------------|----------------------||----------------|
|----------------------|----------------------||-9------5b6-----|
|----------------------|----------------------||-9--7-7------7--|
|---------10-------9---|-(9)----9-9-9-9--9----||-7--0-0------0--|
|-5s7-7-7-10-------7---|-(7)----7-7-7-7--7----||----------------|
|
|                               ~~~~~~
| E E E E  S S S S E E    E   E Q   Q   +Q       Q  Q   Q    Q
|----------------------|----------------------||----------------|
|----------------------|----------------------||----------------|
|-7---7-9--7h9p7-------|----------------------||-------------9--|
|---9------------9-7---|----------------------||----7---7/---9--|
|--------------------9-|--7-------------------||----0---0----7--|
|----------------------|-----10-7---7---(7)\--||-0--------------|


                                            ~~~
   E  E E E E  E  E E   E E E E Q    Q      Q.     E +E  E E    +E
|---------------------|------------------|---------------------------|
|---------------------|------------------|---------------------------|
|---------------------|---------5--------|---------------------------|
|-(7)---------------5-|-5h7-7-7------7---|-/7-----/7-(7)-7-7b8==(7)r-|
|--0--0-0-0-5--6--7---|-0---0-0------0---|--0------------------------|
|---------------------|------------------|---------------------------|
|
| +Q    Q   E  E  E E   E E Q   Q    E E    Q   E  E  E  E E     E
|---------------------|------------------|---------------------------|
|---------------------|------------------|---------------------------|
|-(9)-------x-<7>-----|---------5b6------|---------------------------|
|-(9)---9---------7-7-|-5h7-7--------7-7-|--7---7--7-------------5---|
|-(7)---7---------0-0-|-0---0--------0-0-|--0---0--0--5--6-7---------|
|---------------------|------------------|---------------------------|


w/Rhy Fig 1 x2
                                                                D.S. al Coda
                              PM--|                                   PM--|
  E E Q   Q    Q    +E  E E E E E E E   E E Q   Q      Q    +E  E E E E E E E
|-----------------|-------------------|-------------------|-------------------||
|-----------------|-------------------|-------------------|-------------------||
|---------5b6-----|-------------------|---------5b5.5-----|-------------------||
|-5h7-7--------7--|-(7)-7-7-7-------5-|-5h7-7----------7--|-(7)-7-7-7-------5-||
|-0---0--------0--|-(0)-0-0-0-5-6-7---|-0---0----------0--|-(0)-0-0-0-5-6-7---||
|-----------------|-------------------|-------------------|-------------------||


                    Guitar Solo
  &
  Gtr I
  E E E E E E E E    E E E E E.S Q       +E  +E  H         E E
|-----------------||-------------------|-----------------------|
|-----------------||-5-------5h7-7b8===|=(7)r(7)-7b8-------7-7-|
|-----------------||-5h7-7-7-5h7-7b9===|=(7)r(7)-7b8-------7-7-|
|-4-4-4-4-4-4-4-4-||-------------------|-----------------------|
|-2-2-2-2-2-2-2-2-||-------------------|-----------------------|
|-----------------||-------------------|-----------------------|
|
| Gtr II
|
| E E E E E E E E
|-----------------||
|-----------------||
|-----------------||-w/Rhy Fig 1 x8
|-4-4-4-4-4-4-4-4-||
|-2-2-2-2-2-2-2-2-||
|-----------------||


  E E E E a Q  E E    E  Q   E   +E  E E E
|------------------|-----------------------|
|-------5----------|-----------------------|
|-5-7-7-5---5------|--5--7---7b9r(7)p5---5-|
|-----------5--5h7-|-------------------7---|
|---------7----0---|-----------------------|
|------------------|-----------------------|


  E E E E E Q   E       E  +E  E E E E E E
|--------------------|--5------8---5-5-5-5--|
|-----5---5-8--------|--5------8-8-5-5-5-5--|
|-----5---5-7---7b9==|=(7)r(7)--------------|
|-7-7---7------------|----------------------|
|--------------------|----------------------|
|--------------------|----------------------|


  +E E Q   E Q       E    E  E E E  E  Q   E   E  E  E  E  E  Q    E
|-(5)5-5---5---------5-|--8----5-5--5--5---5-|-5-----8--8--8--8----8-|
|-(5)5-8---5-8b8.5---5-|--8--8-5-8-(8)-5---8-|-8s10-10-10-10-10---10-|
|----------------------|---------------------|-----------------------|
|----------------------|---------------------|-----------------------|
|----------------------|---------------------|-----------------------|
|----------------------|---------------------|-----------------------|


   E  E E E +E  E E E   E E E +E   E  E  E  E    E  E E E +E  E E E
|--8------5-(5)---5-5-|-5-------------8--8--8-|--8s=5-5-5-(5)-5---5-|
|-10s=8-8-8-(8)-8-8-8-|-5h8-8-(8)s10-10-10-10-|-10s=8-8-8-(8)-8-8-5-|
|---------------------|-----------------------|---------------------|
|---------------------|-----------------------|---------------------|
|---------------------|-----------------------|---------------------|
|---------------------|-----------------------|---------------------|


                 ~~~~
  Q      E E    +E   E E   E    E  E E E E E S S S S
|--------------------5-----5-|--5--8p5-5-5-----------|
|-8b10---0-5----(5)--5-5---5-|--5------8---5-5h8p5---|
|--------0-7b9==(7)r---7b9---|---------------------7-|
|----------------------------|-----------------------|
|----------------------------|-----------------------|
|----------------------------|-----------------------|


  E E S S S S E E E E      +Q   Q   E +E  Q
|-------------------8----|-(8)----------------||
|-5-----------------8----|-(8)--8---8---------||
|---7-5h7p5---5---5-7b9==|=(7)--7---7r(7)-----||
|-----------7---7--------|----------------9---||
|------------------------|--------------------||
|------------------------|--------------------||


 Outro
  Rhy Fig 3


  Gtrs I, II
  E     E E E Q  Q    +Q   Q  H
|-------------------|--------------*|
|-------------------|--------------*|
|-5b5.5-------5-----|--------------*|
|-------7-7-7----7--|-(7)----------*|
|-------0-0-0----0--|-(0)----------*|
|-------------------|--------------*|
comments
print report bad tab
I want to post or [tab]
guest
You may want to rate the tab now too:
select rating
Please do not post tabs as comments. Select "correction" instead!