Oops, an error
Loading. Please wait.

Turn The Page Tab

ver1
ver1

Whole song

Interactive

More versions @911Tabs.com
331,173 views 680 this week
23 commentsread comments
1 2 3 4 5
excellent!
x 48
Autoscroll
+/-
esc
set tempo
stop
Contributor
WARNING: You are trying to view
                                    content from Ultimate-Guitar.com
                                    in an unauthorized application,
                                    which is prohibited.

                                    Please use an official Ultimate
                                    Guitar Tabs application for iPhone,
                                    iPad or Android to access legitimate
                                    chords, guitar, bass, and drum tabs
                                    from Ultimate-Guitar.com database.

                                    Type "ultimate guitar tabs" in Apple
                                    App Store's or Android Market's
                                    search to find the application.
#----------------------------------PLEASE NOTE---------------------------------#
#This file is the author's own work and represents their interpretation of the #
#song. You may only use this file for private study, scholarship, or research. #
#------------------------------------------------------------------------------#

                                  TURN THE PAGE
                        As recorded by Metallica (cover)
                        (From the 1998 Album GARAGE INC)

Music by Bob Saeger

Gtr I (Eb Ab Db Gb Bb Eb) 
Gtr II (Eb Ab Db Gb Bb Eb) 
Gtr III (Eb Ab Db Gb Bb Eb)
Gtr IV (Eb Ab Db Gb Bb Eb) 
 Intro
  Moderately Slow Q=74
 4/4
  Gtr II
|-------|--------------------------------|----------------------/15s====|
|-------|--------------------------------|------------------------------|
|-------|--------------------------------|------------------------------|
|-------|--------------------------------|------------------------------|
|-------|--------------------------------|------------------------------|
|-------|--------------------------------|------------------------------|
|
| Gtr I
|-------|-^0----(0)---0-(0)-0-0-0--------|-----------0-(0)-0--0---------|
|-------|-^0----(0)---0-(0)-0-0-0--------|-----------0-(0)-0--0---------|
|-------|-^0----(0)---0-(0)-0-0-0--------|-----------0-(0)-0--0---------|
|-------|-^2----(2)---2-(2)-----------2--|---------------------------2--|
|-------|-^2----(2)----------------------|---------2--------------------|
|-------|-^0----(0)---------------0h3----|-0----0-----------------0-----|


   ~~~~~~~~~~      ~~~~~~~~~                ~~
|-14----(14)-(14)s10---(10)--------------|------------------------------|
|------------------------------------10s=|=12---------------------------|
|----------------------------------------|----------12s==11s======7s====|
|----------------------------------------|------------------------------|
|----------------------------------------|------------------------------|
|----------------------------------------|------------------------------|
|
|-^0---------------0-0--(0)-0--0---------|-------------0-(0)-0--0-0--0--|
|-^0---------------0-0--(0)-0--0---------|-------------0-(0)-0--0-0--0--|
|-^0---------------0-0--(0)-0--0---------|-------------0-(0)-0--0-0--0--|
|-^2----------------------------------2--|-----------2------------------|
|----------------------------------------|-------2----------------------|
|--------------------------------0h3-----|--0---------------------------|


 Verse 1
  ~~~~~~~~~~~~~~~~~~~~~~~~~~~~~~~~~~
|-----------------------------|-----------------------------|
|-----------------------------|-----------------------------|
|-9---------------------------|-(9)----------------7s9s=====|
|-----------------------------|-----------------------------|
|-----------------------------|-----------------------------|
|-----------------------------|-----------------------------|
|
|                                                        ~
|-0----------------0-0--------|--------------------0--------|
|-0-------0-0-(0)--0-0--------|------------0-(0)---0--------|
|-0-------0-0-(0)--0-0--------|------------0-(0)---0--------|
|-2-------2-2-(2)----------2--|------------2-(2)---------2--|
|-2---------------------------|--------2--------------------|
|-0----0---------------0h3----|--0-------------------0h3----|


  ~~~~~~~~~~~~~~~~~~~~~~~~~~~~~~~~~
|----------------------------|--------------------------------|
|----------------------------|--------------------------------|
|-7--------------------------|-(7)----------------------------|
|----------------------------|-------------------------5s=====|
|----------------------------|--------------------------------|
|----------------------------|--------------------------------|
|
|----------0-(0)-0--0--------|-------0-----2-(2)-2-2-2-2------|
|------3---3-(3)-3--3--------|---------3---3-(3)-3-3-3-3------|
|------2---------2--2--------|---------2---2-(2)-2-2-2-2------|
|-0----0--------------0--0h2-|--0-------------------------0h2-|
|----------------------------|--------------------------------|
|----------------------------|--------------------------------|


  ~~~~~~~~~~~~~~~~~~~~~~~~~~~~~~~~~~
|-----------------------------|------------------------------|
|-----------------------------|------------------------------|
|-----------------------------|----------------------12s=====|
|-7---------------------------|-(7)--------------------------|
|-----------------------------|------------------------------|
|-----------------------------|------------------------------|
|
|-----------------------------|------------------------------|
|-----------3-(3)-2--2-2--2-2-|--------2--2-2-2--2-2---------|
|---------2-------2--2-2--2-2-|--------2--2-2-2--2-2---------|
|------2----------------------|--------2--2-2-2--2-2------2--|
|-0---------------------------|--0---------------------------|
|-----------------------------|-----------------------0h3----|


   ~~         ~~~~~~~~
|---------------------------------|--------------------------|
|---------------------------------|--------------------------|
|-11----(11)s=7---(7)-------------|--------------------------|
|-----------------------------7s==|=9---------(9)\-----------|
|---------------------------------|--------------------------|
|---------------------------------|--------------------------|
|
|-------------0-0--0--0---0-0-----|---------0-(0)--0--0-0----|
|-------------0-0--0--0---0-0-----|---------0-(0)--0--0-0----|
|-------------0-0--0--0---0-0-----|---------0-(0)--0--0-0----|
|---------------------------------|--------------------------|
|---------------------------------|--------------------------|
|--0--------------------------0h3-|-0------------------------|


          PM                            PM
|----------------------------|---------------------------------|
|----------------------------|---------------------------------|
|----------------------------|---------------------------------|
|------9----9-(9)---9-9---9--|-------9----9-----9-9---9-9-9-\7-|
|------7----7-(7)---7-7---7--|-------7----7-----7-7---7-7-7-\5-|
|-0-------0------------------|-0--0-----0-----------0----------|
|
| Gtr III
|----------------------------|------------0-(0)-----0----------|
|----------------------------|------------0-(0)-----0----------|
|----------------------------|---------------------------------|
|-2-------2-2-(2)---2-----2--|-------2--------------------2p=0-|
|-2-------2-2-(2)---2--------|----2----------------------------|
|-0-------0-0-(0)---0-0h3----|-0----------------------0h3------|


|--------------------------|-----------------------------|
|--------------------------|-----------------------------|
|--------------------------|-----------------------------|
|-7----7--x-7---7-7--7--7--|-7---7-7--7-7---7-7--7-7-7-7-|
|-5----5--x-5---5-5--5--5--|-5---5-5--5-5---5-5--5-5-5-5-|
|--------------------------|-----------------------------|
|
|------2--2-2-0-2----------|------------2h3-2----2---2---|
|------3--3-3-3-3----3-----|-------3----3---3----3---3---|
|------2--2-2-2-2----------|-2-------------------2---2---|
|-0------------------------|---------------------0---0---|
|--------------------------|-----------------------------|
|--------------------------|-----------------------------|


|---------------------------|-------------------------------|
|---------------------------|-------------------------------|
|---------------------------|-------------------------/12s==|
|-2---------------------0-0-|-2--2--2--2-2---2-2---2--------|
|-0---------------------0-0-|-0--0--0--0-0---0-0---0--------|
|---------------------------|-------------------------------|
|
|                                                       ~~~~
|---------------------------|-------------------------------|
|-------2---3p2---------2h3-|------------2h3p2-2-2-2--------|
|----2----------2----2------|-2-----2--2-2-----2-2-2--------|
|-2---------------2---------|-2-----2--2-------2-2-2--------|
|-0-------------------------|-0-----0--0--------------------|
|---------------------------|---------------------------3---|


   ~~          ~~~~~~~~              ~
|----------------------------------|----------------------------|
|----------------------------------|----------------------------|
|-11----(11)s==7---(7)-------------|------------9\--------------|
|-------------------------------7s=|=9--------------------------|
|----------------------------------|----------------------------|
|----------------------------------|----------------------------|
|
|---------0--0---0--0--0-0---------|----------------------------|
|---------0--0---0--0--0-0---------|---------------0--0-0-0-0-0-|
|---------0--0---0--0--0-0---------|---------------0--0-0-0-0-0-|
|---------2--2---2--2--2-2------2--|------2---2-2--2--2-2-2-2-2-|
|----------------------------------|------2---2-2--2--2-2-2-2-2-|
|--0------------------------0h3----|-0----0---0-0---------------|


 Chorus
|----------------------------|---------------------------|
|----------------------------|---------------------------|
|----------------------------|---------------------------|
|-7----7--x-7---7-7--7---7---|----2--2--x-2---2-2--2--2--|
|-5----5--x-5---5-5--5---5---|-2-----2--x-2---2-2--2--2--|
|----------------------------|-0-----0--x-0---0-0--0--0--|
|
|           PM  PM   PM                 PM  PM|
|----------------------------|---------------------------|
|----------------------------|---------------------------|
|-7----7------7---7----7-7---|---------------------------|
|-7----7------7---7----7-7---|----2--2----2-----2--2--2--|
|-5----5------5---5----5-5---|-2-----2----2-----2--2--2--|
|-----------5---5----5-----0-|-0-----0--0-0-0-0-0--0--0--|


|----------------------------|-------------------------------|
|----------------------------|-------------------------------|
|----------------------------|-------------------------------|
|-7----7--x-7---7-7--7---7---|-2------2--x-2-----2-2--2---2--|
|-5----5--x-5---5-5--5---5---|-2------2--x-2-----2-2--2---2--|
|----------------------------|-0--0---0--x-0-----0-0--0---0--|
|
|           PM  PM                  PM   PM      PM   PM|
|----------------------------|-------------------------------|
|--------------------------0-|-------------------------------|
|-7----7------7---7--7-7---0-|-------------------------------|
|-7----7------7---7--7-7---0-|-2------2----2-(2)---2------2--|
|-5----5------5---5--5-5-----|-2------2----2-(2)---2------2--|
|-----------5---5------------|-0----0-0--0-0-(0)-0-0--0-0-0--|


|-------------------------------|-----------------------------|
|-------------------------------|-----------------------------|
|-------------------------------|----2h4-2p0------------------|
|-7----7--x-7---7-7--7-7-x--x---|-2------------2--2-2---2--2--|
|-5----5--x-5---5-5--5-5-x--x---|-0------------0--0-0-0-0--0--|
|-------------------------------|-----------------------------|
|
|           PM  PM   PM
|-------------------------------|-----------------------------|
|-------------------------------|--------2---2-3--2-----------|
|-7----7------7---7----7---(7)\-|-2------2---2-2--2-----2--2--|
|-7----7------7---7----7---(7)\-|-2------2---2-2--2-----2--2--|
|-5----5------5---5----5---(5)\-|-0---------------------0--0--|
|-----------5---5----5----------|-----------------------------|


                                      ~~
|-----------------|------------/15s==14------(14)S==10---|
|-----------------|--------------------------------------|
|-----------------|-------/12----------------------------|
|-5---5---7---7---|--------------------------------------|
|-3---3---5---5---|-7------------------------------------|
|-----------------|-0------------------------------------|
|
|-----------------|---------0------0--0-0-0--------------|
|-----------------|---------0------0--0-0-0--------------|
|-5---5---7---7---|---------0------0--0-0-0--------------|
|-5---5---7---7---|----2-----------------------------2-2-|
|-3---3---5---5---|-2------------------------------------|
|-----------------|-0--------------------------0h=3------|


|-(10)---------------------------------|
|-------10s=======12-------(12)\-------|
|--------------------------------------|
|--------------------------------------|
|--------------------------------------|
|--------------------------------------|
|
|---------------0-(0)------------------|
|---------------0-(0)------------------|
|---------------0-(0)------------------|
|----------------------------2---------|
|--------------------------------------|
|---0-------0----------0h3--------7\---|


 Verse 2
|---------------------------|----------------------------|
|---------------------------|----------------------------|
|---------------------------|----------------------------|
|-------9----9---9-9--9--9--|--------9----9---9-9--9--9--|
|-------7----7---7-7--7--7--|--------7----7---7-7--7--7--|
|-0--0-----0---0------------|-0--0------0----------------|
|
|-------0-------------------|----------------------0-----|
|-------0-------------------|----------------------0-----|
|-------0-------------------|----------------------0-----|
|-2-------------------------|-2--2-2-2--2-2-2---2--------|
|-2-------------------------|-2--2-2-2--2-2-2---2--------|
|-0-------------------------|-0--0-0-0--0-0-0---0--------|


|-------------------------|--------------------------|
|-------------------------|--------------------------|
|-------------------------|--------------------------|
|-7------x-7--7-7--7--x-x-|-7----7--x-7--7-7--7--7---|
|-5------x-5--5-5--5--x-x-|-5----5--x-5--5-5--5--5---|
|-------------------------|--------------------------|
|
|                     PM|
|-------------------------|--------------------------|
|-------------------------|--------------------------|
|-7-----------------------|-7-----------------7--7\--|
|-7-----------------------|-7-----------------7--7\--|
|-5-------------------5-5-|-5-----------------5--5\--|
|-------------------------|--------------------------|


|------------------------------|--------------------------/15s==|
|------------------------------|--------------------------------|
|--------------------------2p0-|-2------------------------------|
|-2------------------------2p0-|-2----2--2-2--2---2-2-2---------|
|-0----0--0-0--0---0-0-0-------|-0----0--0-0--0---0-0-0---------|
|------------------------------|--------------------------------|
|
|                                                 PM
|------------------------------|--------------------------------|
|----------------------3p2-----|----------------------3p2-------|
|-2-----------(2)--------------|-2-----------(2)----------------|
|-2-----------(2)--------------|-2-----------(2)----------------|
|-0-----------(0)--0-0---------|-0-----------(0)----------------|
|------------------------------|------------------0-------------|


   ~~                               ~~~
|-14-------(14)s15s14S===10S=====|=12-------------12\------------|
|--------------------------------|-------------------------------|
|--------------------------------|-------------------------------|
|--------------------------------|-------------------------------|
|--------------------------------|-------------------------------|
|--------------------------------|-------------------------------|
|
|                             ~~~~~~~~~
|-------0------------------------|-------------------------------|
|-------0------------------------|-------------------------------|
|-------0------------------------|-------------------------------|
|-----------------------------2--|-(2)-----------------2--2p0-0--|
|--------------------------------|-------------------------------|
|--0----------------------0h3----|------0--0--0-0--0h3-----------|


|--------------------------|-------------------------|
|--------------------------|-------------------------|
|--------------------------|-------------------------|
|------9----9--9-9--9--9-9-|-9----9--x-9--9-9--9--9--|
|------7----7--7-7--7--7-7-|-7----7--x-7--7-7--7--7--|
|-0-------0----------------|-------------------------|
|
|------0-------------------|-------------------------|
|------0-------------------|-0-----------------------|
|------0-------------------|-0-----------------------|
|--------------------------|-2-----------------------|
|--------------------------|-------------------------|
|-0------------------------|-------------------------|


|---------------------------|-----------------------------|
|---------------------------|-----------------------------|
|---------------------------|-----------------------------|
|-7----7--x-7--7-7--7-7-7---|-7----7--x-7-----7-7--7---7--|
|-5----5--x-5--5-5--5-5-5---|-5----5--x-5-----5-5--5---5--|
|---------------------------|-----------------------------|
|
|                                     PM--|
|---------------------------|-----------------------------|
|-----------------------7-x-|-7---------------------------|
|-7---------------------7-x-|-7--------------------7------|
|-7---------------------7-x-|-7--------------------7------|
|-5---------------------5-x-|-5-------5-5-(5)------5-0-0--|
|---------------------------|-----------------------------|


|-----------------------------|---------------------------------|
|-----------------------------|----------------------------/8s==|
|-------------------------2p0-|-2-----2--0-2--------------------|
|------2--0-2-------------2p0-|-2--2-----0-2-----2-2---2--------|
|-0----0--0-0---0-0-0-0-------|------------------0-0---0--------|
|-----------------------------|---------------------------------|
|
|-----------------------------|---------------------------------|
|---------------------3-2h==3-|--------------------2h3-3p2------|
|-2---------------------------|-2-------------------------------|
|-2---------------------------|-2----------------2--------------|
|-0-------0-0-0---0-0---------|----------0---(0)----------------|
|-----------------------------|---------------------------------|


  ~                               ~~~~~~~~~~~~~~~~~~~
|------------------------------|-----------------12------(12)\----|
|-7-----(7)S=8--(8)S===10S=====|=12-------------------------------|
|------------------------------|----------------------------------|
|------------------------------|----------------------------------|
|------------------------------|----------------------------------|
|------------------------------|----------------------------------|
|
|--------0---------------------|----------------------------------|
|--------0---------------------|----------------------------------|
|--------0---------------------|----------------------------------|
|--------2------------------2--|-(2)-------2---2------2-----------|
|------------------------------|----------------------------------|
|-0--0------------------0h3----|-----0-0h3--------0h3-----12\-----|


 Chorus
|----------------------------|-----------------------------|
|----------------------------|-----------------------------|
|----------------------------|-----------------------------|
|-7----7--x-7---7-7--7-7-7-7-|-2--x-2-2--x-2---2-----2--2--|
|-5----5--x-5---5-5--5-5-5-5-|-2--x-2-2--x-2---2-----2--2--|
|----------------------------|-0--x-0-0--x-0---0-0-0-0--0--|
|
|           PM  PM   PM                  PM  PM|
|----------------------------|-----------------------------|
|----------------------------|-----------------------------|
|-7----7------7---7----7-7---|-----------------------------|
|-7----7------7---7----7-7---|----2---2----2-----2---2--2--|
|-5----5------5---5----5-5---|-2------2----2-----2---2--2--|
|-----------5---5----5-----0-|-0------0--0-0-0-0-0---0--0--|


                                  ~~~~~~~~~~~~~~~~~~~~~~~~~
|--------------------12s10-------12-|-(12)------------(12)---(12)\----------|
|--------------------------10s12----|---------------------------------------|
|-----------------------------------|-----------------------------------0---|
|-7----7--x-7---7-7-----------------|---------------------------------------|
|-5----5--x-5---5-5-----------------|---------------------------------------|
|-----------------------------------|---------------------------------------|
|
|           PM  PM                           PM   PM       PM       PM|
|-----------------------------------|---------------------------------------|
|---------------------------------0-|---------------------------------------|
|-7----7------7---7---7--7--------0-|---------------------------------------|
|-7----7------7---7---7--7--------0-|---2------2----2--(2)-----2--------2---|
|-5----5------5---5---5--5----------|---2------2----2--(2)-----2--------2---|
|-----------5---5-------------------|---0----0-0--0-0--(0)-0---0----0-0-0---|


|------------------------------|
|------------------------------|
|------------------------------|
|-7---7--x-7---7-7--7---7------|
|-5---5--x-5---5-5--5---5------|
|------------------------------|
|
|          PM  PM   PM
|------------------------------|
|------------------------------|
|-7---7------7---7----7---(7)\-|
|-7---7------7---7----7---(7)\-|
|-5---5------5---5----5---(5)\-|
|----------5---5----5----------|


                             ~~~          ~~
|------------------------|------------------------------|
|------------------------|------------------------------|
|------------------------|------------------------------|
|-2----2--x-2--2-2--2--2-|-/10----10s=7S=12-------(12)\-|
|-0----0--x-0--0-0--0--0-|------------------------------|
|------------------------|------------------------------|
|
|------------------------|------------------------------|
|------2--2-3--2---------|------------------------------|
|-2----2--2-2--2----2--2-|---5-----5------7----7--------|
|-2----2--2-2--2----2--2-|---5-----5------7----7--------|
|-0-----------------0--0-|---3-----3------5----5--------|
|------------------------|------------------------------|


|-----12-12-----12\------12-(12)\-----12-12\-----12-12\--|
|-/12-------/12------/12-12-(12)\-/12--------/12---------|
|--------------------------------------------------------|
|--------------------------------------------------------|
|--------------------------------------------------------|
|--------------------------------------------------------|
|
|                                                    ~~~~~
|--------------------------------------------------------|
|--------------------------------------------------------|
|--------------------------------------------------------|
|---2------------2-----------------------------------2---|
|---2------------2---------------------------------------|
|---0------------0------------0--------0-------0h=3------|


|-/15---(15)s10S17--(17)s12-12s10-------12-(12)----(12)\-|
|---------------------------------10s12-12-(12)----(12)\-|
|--------------------------------------------------------|
|--------------------------------------------------------|
|--------------------------------------------------------|
|--------------------------------------------------------|
|
|~~~~~~          ~~                   ~~~~~~~~~~
|--------------------------------------------------------|
|--------------------------------------------------------|
|--------------------------------------------------------|
|--(2)-----------2--------2-----------2-----(2)-9\-------|
|-----------------------------------------------7\-------|
|---------0h==3--------------0h=3------------------------|


 Verse 3
           PM----|   PM            PM|    PM  PM|   PM
|-----------------------------|------------------------------|
|-----------------------------|------------------------------|
|-----------------------------|------------------------------|
|-------9----------9---9------|-9------9----9-----9---9--9s7-|
|-------7----------7---7--5s7-|-7------7----7-----7---7--7s5-|
|-0--0-----0-0-0-0---0----0---|-0--0-0----0---0-0---0--------|
|
|          PM------|               PM|    PM  PM|
|-------0---------------------|------------------------------|
|-------0---------------------|------------------------------|
|-----------------------------|------------------------------|
|-2---------------------------|-----------------------2--2---|
|-2------------2-------2------|-2------2----2-----2---2--2---|
|-0--------0---0-0-0---0--3p0-|-0--0-0-0--0-0-0-0-0-0-0--0---|


|--------------------------------|----------------12\-------------|
|--------------------------------|-----------/12------------------|
|--------------------------------|--------------------------------|
|-7----7-7--x-7---7-7---7------7-|-7----7-7-----------------------|
|-5----5-5--x-5---5-5---5------5-|-5----5-5-----------------------|
|--------------------------------|--------------------------------|
|
|               PM|          PM|
|--------------------------------|--------------------------------|
|--------------------------------|--------------------------------|
|-7--7---7--7-7-----7--(7)-7-----|-7--7-7-7----7---7--x-7--7--7\--|
|-7--7---7--7-7-----7--(7)-7-----|-7--7-7-7----7---7--x-7--7--7\--|
|-5--5---5--5-5-----5--(5)-5-----|-5--5-5-5----5---5--x-5--5--5\--|
|---------------5-5----------5-5-|--------------------------------|


   ~~~~~~~~~~~~~~~~~~~~~~~~~~~~~~~~
|-----------------------------|-----------------------------/15s==|
|-----------------------------|-----------------------------------|
|-----------------------------|-----------------------------------|
|-/7--------------------------|-/7--------------------(7)/--------|
|-----------------------------|-----------------------------------|
|-----------------------------|-----------------------------------|
|
|-----------------------------|-----------------------------------|
|--2--2--2--2--2-2-2-2-2-2--2-|--2-2-2--2--2-2--2-2-2--2----------|
|--2--2--2--2--2-2-2-2-2-2--2-|--2-2-2--2--2-2--2-2-2--2----------|
|--2--2--2--2--2-2-2-2-2-2--2-|--2-2-2--2--2-2--2-2-2--2----------|
|--0--0--0--0--0-0-0-0-0-0--0-|--0-0-0--0--0-0--0-0-0--0----------|
|-----------------------------|-------------------------------3p0-|


   ~~            ~~~~~~~~               ~~
|-14------(14)S=10--(10)-------------|---------------------------------|
|--------------------------------10s=|=12---------------------(12)\----|
|------------------------------------|---------------------------------|
|------------------------------------|---------------------------------|
|------------------------------------|---------------------------------|
|------------------------------------|---------------------------------|
|
|-----------0--------(0)-------------|---------------------------------|
|-----------0--------(0)-------------|---------------------------------|
|-----------0--------(0)----------2--|-------2-2-2-2-(2)-2-2-----------|
|--2------------------------------2--|--2----2-2-2-2-(2)-2-2-----------|
|----2-------------------------------|---------------------------------|
|------0------------------0--3p0-----|---------------------------------|


  Gtr III
                      >
|------------------|--------|
|------------------|--------|
|------------------|--------|
|-2----------------|-(2)----|
|-2----------------|-(2)----|
|-0----------------|-(0)----|


|------------------|-----------------------------|
|------------------|-----------------------------|
|------------------|-----------------------------|
|------------------|----------------12-----(12)--|
|------------------|-----------------9b10===(9)r=|
|------------------|-----------------------------|


 Interlude
|--------------------------------------------|
|--------------------------------------------|
|--------------------------------------------|
|-(12)-----------(12)\---7-(7)-(7)-7----(7)\-|
|--(9)------------(9)\---5h=7--(7)-5----(5)\-|
|--------------------------------------------|
|
| Gtr II
|--------------------------------------------|
|--------------------------------------------|
|--------------------------------------------|
|---7-----7--x-7-------7-7------7--7-7\------|
|---5-----5--x-5-------5-5------5--5-5\------|
|--------------------------------------------|


|----------------------------------------------|
|----------------------------------------------|
|----------------------------------------------|
|-2--------2----------------------12-----(12)--|
|-2--------------------------------9b10===(9)r=|
|-0----3p0---0-(0)-0-<3>-<4>-<5>---------------|
|
|----------------------------------------------|
|----------------------------------------------|
|----------------------------------------------|
|-2----2---x-2-----2--2-------2----2-----------|
|-2----2---x-2-----2--2-------2----2-----------|
|-0----0---x-0-----0--0-------0----0-----------|


|----------------------------------------------|
|----------------------------------------------|
|----------------------------------------------|
|-(12)-----------(12)\---7-(7)-(7)---7----(7)\-|
|--(9)------------(9)\---5h=7--(7)-5h7----(7)\-|
|----------------------------------------------|
|
|----------------------------------------------|
|----------------------------------------------|
|----------------------------------------------|
|---7-----7--x-7-------7-7------7----7-7\------|
|---5-----5--x-5-------5-5------5----5-5\------|
|----------------------------------------------|


|--------------------------------------------|
|--------------------------------------------|
|--------------------------------------------|
|-2---------2---(2)------------12-----(12)---|
|-2-----------------------------9b10===(9)r==|
|-0---0-3p0---------0-3p0-(0)----------------|
|
|--------------------------------------------|
|--------------------------------------------|
|--------------------------------------------|
|-2-----2---x-2-----2-2----2----2------------|
|-2-----2---x-2-----2-2----2----2------------|
|-0-----0---x-0-----0-0----0----0------------|


|----------------------------------------------|
|----------------------------------------------|
|----------------------------------------------|
|-(12)-----------(12)\---7-(7)-(7)---7----(7)\-|
|--(9)------------(9)\---5h=7--(7)-5h7----(7)\-|
|----------------------------------------------|
|
|----------------------------------------------|
|----------------------------------------------|
|----------------------------------------------|
|---7-----7--x-7-------7-7------7----7-7\------|
|---5-----5--x-5-------5-5------5----5-5\------|
|----------------------------------------------|


                    PM------|
|-----------------------------------------|
|-----------------------------------------|
|-----------------------------------------|
|-2---------2---(2)-----------12----(12)--|
|-2----------------------------9b10r=(9)--|
|-0---0-3p0---------0-0-0-0-0-------------|
|
|-----------------------------------------|
|-----------------------------------------|
|-----------------------------------------|
|-2-----2---x-2-----2-2---2----2----------|
|-2-----2---x-2-----2-2---2----2----------|
|-0-----0---x-0-----0-0---0----0----------|


   ~~
|-----------------------------------|
|-----------------------------------|
|-----------------------------------|
|-10---------10h12-12---------------|
|-10-----10---------9------9h10-9s7-|
|-----------------------------------|
|
|-----------------------------------|
|-----------------------------------|
|-----------------------------------|
|--5--5---5---5-----7-7-7--7----7---|
|--3--3---3---3-----5-5-5--5----5---|
|-----------------------------------|


                           PM|
|--------------------------------------------|
|--------------------------------------------|
|-------9--9-9-(9)\--------------------------|
|-9-----9--9-9-(9)\---x-x-12-12-12-----(12)--|
|-7-----7--7-7-(7)\---x-x-10-10--9b10===(9)r=|
|---------------------x-x--------------------|
|
|    PM    PM
|--------------------------------------------|
|--------------------------------------------|
|--------------------------------------------|
|-9-----9----9------9-9-9--9--9--9s======7---|
|-7-----7----7------7-7-7--7--7--7s======5---|
|----0-----0---------------------------------|


 Guitar Solo
  Gtr IV
|-----------------------------------------------------------|
|-----------15b17r=(15)---(15)---15-----(15)----------------|
|--------------------------------------------12b14====(12)r-|
|-----------------------------------------------------------|
|-----------------------------------------------------------|
|-----------------------------------------------------------|
|
| Gtr III
|-----------------------------------------------------------|
|-----------------------------------------------------------|
|-----------------------------------------------------------|
|-(12)--------------------(12)\---7-(7)--(7)--7--------(7)\-|
|--(9)---------------------(9)\---5h=7---(7)--5--------(5)\-|
|-----------------------------------------------------------|
|
| Gtr II
|       PM|          PM-|         PM|               PM|
|-----------------------------------------------------------|
|-----------------------------------------------------------|
|-----------------------------------------------------------|
|---7--------7--------------7-------------7-----------------|
|---5---5-5--5-------5--5---5-----5--5----5---------5---5---|
|-----------------------------------------------------------|


   ~~                                PM----|
|-------------------------------------------------------|
|-------------------12--12\-----------------------------|
|-------------------12--12\-----------------------------|
|-14----------12h14-------------------------------------|
|-------------------------------------------------------|
|------------------------------------0--0---0-----------|
|
|-------------------------------------------------------|
|-------------------------------------------------------|
|-------------------------------------------------------|
|--2-----------2---------------------------12-----(12)--|
|--2----------------------------------------9b10===(9)r=|
|--0------3p0-----0-(0)--0--<3>-<4>-<5>-----------------|
|
|     PM|      PM|           PM-|           PM----|
|-------------------------------------------------------|
|-------------------------------------------------------|
|-------------------------------------------------------|
|--9------9----------9---------------7h=9---------------|
|--7------7----------7---------------7-(7)--------------|
|-----0-0------0--0----------0---0----------0-------0---|


|-------------------------------------------------------------------------------------------------|
|-------------------15b17====(15)r==(15)-------(15)-----------------------------------------------|
|---------------------------------------------------------14b16====(14)r==(14)--------------------|
|-------------------------------------------------------------------------------------------------|
|-------------------------------------------------------------------------------------------------|
|-------------------------------------------------------------------------------------------------|
|
|-------------------------------------------------------------------------------------------------|
|-------------------------------------------------------------------------------------------------|
|-------------------------------------------------------------------------------------------------|
|-(12)-----------------------------------------(12)\-------7--------(7)----(7)-----7-------(7)\---|
|--(9)------------------------------------------(9)\-------5h========7-----(7)---5h7-------(7)\---|
|-------------------------------------------------------------------------------------------------|
|
|           PM--|                     PM---|               PM------|                   PM--|
|-------------------------------------------------------------------------------------------------|
|-------------------------------------------------------------------------------------------------|
|-------------------------------------------------------------------------------------------------|
|---7----------------7---------------------------7--------------------------7---------------------|
|---5-------5---5----5----------------5----5-----5---------5---------5------5----------5----5-----|
|-------------------------------------------------------------------------------------------------|


|------------------------------------------------------------------------------------------------------------|
|----------------------------------------------------------------------------------------------15------------|
|12b14====(12)r==(12)------------------------------------------12h==14---14pb16r==(14)p====12--14b15---------|
|-----------------------------------14b16====(14)r==(14)-----------------------------------------------------|
|----------------------------------------------------------0-------------------------------------------------|
|------------------------------------------------------------------------------------------------------------|
|
|------------------------------------------------------------------------------------------------------------|
|------------------------------------------------------------------------------------------------------------|
|------------------------------------------------------------------------------------------------------------|
|-2----------------------------------2---------------(2)---------------------------------------12-------(12)-|
|-2---------------------------------------------------------------------------------------------9b10=====(9)r|
|-0---------------------0---3p==0--------------------------0----3p===0---(0)---------------------------------|
|
|                    PM---|            PM------|                  PM--|                           PM------|
|------------------------------------------------------------------------------------------------------------|
|------------------------------------------------------------------------------------------------------------|
|------------------------------------------------------------------------------------------------------------|
|-9-------------------------9-------------------------9-------------------7h============9--------------------|
|-7-------------------------7-------------------------7-------------------7------------(7)-------------------|
|------------------0----0------------0---------0----------------0----0--------------------------0---------0--|


|------------------------------------------------------------------|
|--15---15---15-15-12b13==(12)r------------------------------------|
|--14--------14-14-12b13==(12)r-----------------12------14b16------|
|--------------------------------14---12---------------------------|
|----------------------------------------14-12---------------------|
|------------------------------------------------------------------|
|
|------------------------------------------------------------------|
|------------------------------------------------------------------|
|------------------------------------------------------------------|
|-(12)--------------------------(12)\-----7-(7)-(7)---7-------(7)\-|
|--(9)---------------------------(9)\-----5h=7--(7)-5h7-------(7)\-|
|------------------------------------------------------------------|
|
|        PM|        PM----|               PM|            PM---|
|------------------------------------------------------------------|
|------------------------------------------------------------------|
|------------------------------------------------------------------|
|---7---------7-------------------7--------------7-----------------|
|---5----5-5--5-----5-------5-----5-------5--5---5-------5-----5---|
|------------------------------------------------------------------|


         ~~                     ~~~~~~~~
|------------------------------------------------------------------|
|------------------------------------------------------------------|
|-12b13--------12-14---14pb16r(14)-(14)-----(14)\------------------|
|-------14----------------------------------------7s12--12h====14--|
|------------------------------------------------------------------|
|------------------------------------------------------------------|
|
|                                       PM----------|
|------------------------------------------------------------------|
|------------------------------------------------------------------|
|------------------------------------------------------------------|
|--2-----------------2--------------(2)-----------------12----(12)-|
|--2-----------------------------------------------------9b10r=(9)-|
|--0---------0--3p=0--------------------0-0---0---0--0-------------|
|
|          PM|       PM|                  PM|            PM---|
|------------------------------------------------------------------|
|------------------------------------------------------------------|
|------------------------------------------------------------------|
|--9------------9--------------------9------------7h=9-------------|
|--7------------7--------------------7------------7-(7)------------|
|----------0-0-------0--0-----------------0---0----------0------0--|


|-------------------------------------------------------------------------------------|
|----------------------------------------0--------------------------------------------|
|-12---12---------------------12---12---------------------11--------14b16r=(14)p==12--|
|-------------------12h==14---------------------12h==14-------------------------------|
|-------------------------------------------------------------------------------------|
|-------------------------------------------------------------------------------------|
|
|  ~~
|-------------------------------------------------------------------------------------|
|-------------------------------------------------------------------------------------|
|-------------------------------------------------------------------------------------|
|-10--------------------------10h==12---12--------------------------------------------|
|-10----------------10-------------------9-----------------9h==10----9s=========7-----|
|-------------------------------------------------------------------------------------|
|
|           PM--|              PM--|             PM--|               PM---------|
|-------------------------------------------------------------------------------------|
|-------------------------------------------------------------------------------------|
|-------------------------------------------------------------------------------------|
|--5-----------------5-------------------7-----------------7--------------------------|
|--3--------3---3----3---------3----3----5-------5----5----5---------5----------5-----|
|-------------------------------------------------------------------------------------|


   ~                                     ~~~~~~~~~~~~~~~~~~~~~
|----------------------------------------------------------------------------|
|-----------------12-----------12-------15b17============(15)------(15)r\----|
|--9--------------12-----------12--------------------------------------------|
|----------------------------------------------------------------------------|
|----------------------------------------------------------------------------|
|----------------------------------------------------------------------------|
|
|----------------------------------------------------------------------------|
|----------------------------------------------------------------------------|
|----------------------------------------------------------------------------|
|--9----------7h===9-------7h===9--------7h======9---------9---------9-------|
|--7------7------------7------------7----------------7-----7---------7-------|
|----------------------------------------------------------------------------|
|
|         PM--|            PM
|----------------------------------------------------------------------------|
|----------------------------------------------------------------------------|
|----------------------------------------------------------------------------|
|--9---------------9------------9--------9-------9---9-----9--------(9)\-----|
|--7---------------7------------7--------7-------7---7-----7--------(7)\-----|
|---------0---0------------0-------------------------------------------------|


 Out-Chorus
  Gtr II
   ~~                            ~
|------------------------------|-------------------------------|
|------------------------------|-------------------------------|
|--------------------------7s==|=9------------------9s12s=11S==|
|-12-----------------12\-------|-------------------------------|
|------------------------------|-------------------------------|
|------------------------------|-------------------------------|
|
| Gtr III
|           PM  PM    PM                  PM  PM|
|------------------------------|-------------------------------|
|------------------------------|-------------------------------|
|--7----7-----7---7------7-7---|-------------------------------|
|--7----7-----7---7------7-7---|----2--2----2-----2----2---2---|
|--5----5-----5---5------5-5---|-2-----2----2-----2----2---2---|
|-----------5---5-----5------0-|-0-----0--0-0-0-0-0----0---0---|


  ~~~~~~~~~~~~~~~                     ~~~
|------------------------12s10-------12-|
|------------------------------10s12----|
|-7----------(7)---(7)/-----------------|
|---------------------------------------|
|---------------------------------------|
|---------------------------------------|
|
|          PM    PM
|---------------------------------------|
|-------------------------------------0-|
|-7----7------7-----7-----7--7--------0-|
|-7----7------7-----7-----7--7--------0-|
|-5----5------5-----5-----5--5----------|
|----------5-----5----------------------|


 ~~~~~~
|-(12)-----12--(12)S==21\----------------|
|----------------------------------------|
|------------------------------9\---9\---|
|----------------------------------------|
|----------------------------------------|
|----------------------------------------|
|
|        PM      PM       PM   PM-|
|----------------------------------------|
|----------------------------------------|
|----------------------------------------|
|---2-------2-------2-(2)---2-------2----|
|---2-------2-------2-(2)---2-------2----|
|---0----0--0----0--0-(0)-0-0--0--0-0----|


    ~
|------------------------------------|-----------------------------|
|------------------------------------|---------------------10s=12--|
|-5s7----------(7)---7--7s5---7s=9---|-(9)----7----7s9-------------|
|---------------------------7--------|-----------------------------|
|------------------------------------|-----------------------------|
|------------------------------------|-----------------------------|
|
|            PM    PM   PM
|------------------------------------|-----------------------------|
|------------------------------------|--------2--2-3---2-----------|
|---7----7------7----7----7-----(7)\-|--2-----2--2-2---2----2---2--|
|---7----7------7----7----7-----(7)\-|--2-----2--2-2---2----2---2--|
|---5----5------5----5----5-----(5)\-|--0-------------------0---0--|
|------------5-----5----5------------|-----------------------------|


   ~~           ~~                            PM|       PM|    PM|
|------------------------------|-----------------------------------|
|------------------------------|-----------------------------------|
|------------------------------|----------------------------9------|
|-10--------10s12-------(12)\--|-9------7h=9------7h=9------9------|
|------------------------------|-7--7-7-7-(7)-----7-(7)-----7--7-7-|
|------------------------------|--------------0-0-------0-0--------|
|
|                                                    PM
|------------------------------|-----------------------------------|
|------------------------------|-----------------------------------|
|--5----5-------7----7---------|-----------------------------------|
|--5----5-------7----7---------|-2------2-----2-2-------2---2--2-2-|
|--3----3-------5----5---------|-2------2-----2-2-------2---2--2-2-|
|------------------------------|-0--0---0-----0-0----0--0---0--0-0-|


     PM|     PM|    PM|     PM|      PM     PM
|-------------------------------|----------------------------|
|-------------------------------|----------------------------|
|-------------------------------|----------------------------|
|-5------5-------7------7-------|-9----9-9----9--9-9--9--9s7-|
|-3--3-3-3---3-3-5--5-5-5---5-5-|-7----7-7----7--7-7--7--7s5-|
|-------------------------------|----0------0----------------|
|
|                                    PM|    PM
|-----------------------------0-|----------------------------|
|-----------------------------0-|----------------------------|
|-5--5-5-5-5-5-6-7--7-7-7-7-7---|----------------------------|
|-5--5-5-5-5-5-6-7--7-7-7-7-7---|-2------2----2--2-2--2--2-2-|
|-3--3-3-3-3-3-4-5--5-5-5-5-5---|-2------2----2--2-2--2--2-2-|
|-------------------------------|-0--0-0-0--0-0--0-0--0--0-0-|


     PM|    PM|    PM|     PM|      PM|    PM|     PM|     PM|
|------------------------------|-------------------------------|
|------------------------------|-------------------------------|
|------------------------------|-------------------------------|
|-5------5------5------5-------|-7------7------7-------7-------|
|-3--3-3-3--3-3-3--3-3-3---3-3-|-5--5-5-5--5-5-5---5-5-5---5-5-|
|------------------------------|-------------------------------|
|
|                                            PM  PM
|------------------------------|-------------------------------|
|------------------------------|-------------------------------|
|-5--5-5-5--5-5-5--5-5-5-5-5-5-|-7--7-7-7--7---7---7---7-7-7-7-|
|-5--5-5-5--5-5-5--5-5-5-5-5-5-|-7--7-7-7--7---7---7---7-7-7-7-|
|-3--3-3-3--3-3-3--3-3-3-3-3-3-|-5--5-5-5--5---5---5---5-5-5-5-|
|------------------------------|-------------5---5-------------|


  Gtr IV
|--------------------------------|
|--------------------------------|
|--------------------------------|
|--------------------------------|
|--------------------------------|
|--------------------------------|
|
| Gtr II
|    PM|    PM|    PM|       PM|
|--------------------------------|
|--------------------------------|
|--------------------------------|
|-9------9------9------7h=9------|
|-7------7------7------7-(7)-----|
|----0-0----0-0----0-0-------0-0-|
|
| Gtr III
|--------------------------------|
|--------0----0-0----------------|
|--------0----0-0------2---------|
|--------2----2-2------2---------|
|----2---------------------------|
|-0--0-------------3p0-------0-0-|


|--------------------------------------/15-----------|
|----------------------------------------------------|
|----------------------------------------------------|
|----------------------------------------------------|
|----------------------------------------------------|
|----------------------------------------------------|
|
|       PM|         PM|         PM|
|----------------------------------------------------|
|----------------------------------------------------|
|----------------------------------------------------|
|-7h=9-------7h==9-------7h==9------9----9\----------|
|-7-(7)------7--(7)------7--(7)-----7----7\----------|
|-------0-0---------0-0---------0-0------------------|
|
|----------------------------------------------------|
|----------------------------------------------------|
|-------4p2-(2)--------------------------------------|
|----------------2----------------------12-----(12)--|
|----------------------------------------9b10===(9)r=|
|-3p=0----------------3-(3)--0----0-0----------------|


 Outro
    ~~~~~~~~~~~~~~~~~~~~~
|--14--------------(14)--14S10S=================|
|-----------------------------------------------|
|-----------------------------------------------|
|-----------------------------------------------|
|-----------------------------------------------|
|-----------------------------------------------|
|
|       PM|    PM|           PM|         PM|
|-----------------------------------------------|
|-----------------------------------------------|
|-----------------------------------------------|
|---7-------7--------7--------------7-----------|
|---5---5-5-5--5-5---5-------5--5---5----5--5---|
|-----------------------------------------------|
|
|-----------------------------------------------|
|-----------------------------------------------|
|-----------------------------------------------|
|-(12)-------------(12)\-----7-(7)-(7)-7---(7)\-|
|--(9)--------------(9)\-----5h=7--(7)-5---(5)\-|
|-----------------------------------------------|


   ~~
|-12--------------(12)\-------------------/15-----------|
|-------------------------------------------------------|
|-------------------------------------------------------|
|-------------------------------------------------------|
|-------------------------------------------------------|
|-------------------------------------------------------|
|
|     PM|     PM|          PM-|             PM----|
|-------------------------------------------------------|
|-------------------------------------------------------|
|-------------------------------------------------------|
|--9------9---------9--------------7h==9----------------|
|--7------7---------7--------------7--(7)---------------|
|-----0-0-----0-0----------0---0------------0-------0---|
|
|-------------------------------------------------------|
|-------------------------------------------------------|
|-------------------------------------------------------|
|--2----------2----------------------------12-----(12)--|
|--2----------------------------------------9b10===(9)r=|
|--0------3p0---0--(0)--0-<3>-<4>-<5>-------------------|


    ~~~~
|--14--------------(14)S========10\-------------|
|-------------------------------------8s10s=====|
|-----------------------------------------------|
|-----------------------------------------------|
|-----------------------------------------------|
|-----------------------------------------------|
|
|       PM|    PM|        PM|            PM|
|-----------------------------------------------|
|-----------------------------------------------|
|-----------------------------------------------|
|---7-------7--------7-----------7--------------|
|---5---5-5-5--5-5---5----5--5---5-------5--5---|
|-----------------------------------------------|
|
|-----------------------------------------------|
|-----------------------------------------------|
|-----------------------------------------------|
|-(12)-------------(12)\--7-(7)-(7)---7----(7)\-|
|--(9)--------------(9)\--5h=7--(7)-5h7----(7)\-|
|-----------------------------------------------|


   ~~
|-------------------24-------------------/15-----------|
|-12------------12/-----24s======10\-------------------|
|------------------------------------------------------|
|------------------------------------------------------|
|------------------------------------------------------|
|------------------------------------------------------|
|
|     PM|     PM|            PM|           PM----|
|------------------------------------------------------|
|------------------------------------------------------|
|------------------------------------------------------|
|--9------9----------9------------7h==9----------------|
|--7------7----------7------------7--(7)---------------|
|-----0-0-----0--0-----------0-0-----------0-------0---|
|
|------------------------------------------------------|
|------------------------------------------------------|
|------------------------------------------------------|
|--2----------2-----(2)-------------------12-----(12)--|
|--2---------------------------------------9b10===(9)r=|
|--0----0-3p0--------------0-3p0-(0)-------------------|


    ~~~~           ~~~~~~~~~~
|--14-------(14)s=17---(17)---------(17)S====10s=====|
|----------------------------------------------------|
|----------------------------------------------------|
|----------------------------------------------------|
|----------------------------------------------------|
|----------------------------------------------------|
|
|       PM|        PM|        PM|             PM|
|----------------------------------------------------|
|----------------------------------------------------|
|----------------------------------------------------|
|---7---------7----------7------------7--------------|
|---5---5-5---5----5-5---5----5--5----5-------5--5---|
|----------------------------------------------------|
|
|----------------------------------------------------|
|----------------------------------------------------|
|----------------------------------------------------|
|-(12)-----------------(12)\--7-(7)--(7)---7----(7)\-|
|--(9)------------------(9)\--5h=7---(7)-5h7----(7)\-|
|----------------------------------------------------|


   ~~
|-12------------------------(12)\-----------------|
|-------------------------------------------------|
|-------------------------------------------------|
|-------------------------------------------------|
|-------------------------------------------------|
|-------------------------------------------------|
|
|     PM|     PM|       PM|            PM---|
|-------------------------------------------------|
|-------------------------------------------------|
|-------------------------------------------------|
|--9------9--------9----------7h===9--------------|
|--7------7--------7----------7---(7)-------------|
|-----0-0-----0-0-------0-0------------0------0---|
|
|                     PM----------|
|-------------------------------------------------|
|-------------------------------------------------|
|-------------------------------------------------|
|--2----------2---(2)-----------------12----(12)--|
|--2-----------------------------------9b10r=(9)--|
|--0----0-3p0---------0-0-0---0----0--------------|


                              H.=H
    ~~~
|-------------------------------------------|
|-------------------------------------------|
|-------------------------------------------|
|-/10--------------------------10S=====5s===|
|-------------------------------------------|
|-------------------------------------------|
|
|-------------------------------------------|
|-------------------------------------------|
|-------------------------------------------|
|---5--5-5--5--5--5--5-----5----5------5----|
|---3--3-3--3--3--3--3-----3----3------3----|
|-------------------------------------------|
|
|                       PM
|-------------------------------------------|
|-------------------------------------------|
|-------------------------------------------|
|--10------10-------10----10--(10)----10h12-|
|--10------10----10-------10--(10)-10-10----|
|----------------------12-------------------|


              ~~~~~~~~~~~~~~~
|--------------------------------------------|
|--------------------------------------------|
|--------------------------------------------|
|-12--[12]--[12]------([12])--12--12S====0---|
|--------------------------------------------|
|--------------------------------------------|
|
|---------------------------------------15S==|
|--------------------------------------------|
|--------------------------------------------|
|--7----------7----------7-----7---7---------|
|--5----------5----------5-----5---5---------|
|--------------------------------------------|
|
|--------------------------------------------|
|--------------------------------------------|
|--------------------------------------------|
|-12---------12---------12----12--12----12s9-|
|--9----------9----------9-----9---9h10--9s7-|
|------------------10------------------------|


  Gtr II
   ~~          ~~~~~~~~           ~~~~~~~~~~~~~~~~~~~~
|-14----(14)S=10--(10)---------|---------------|------------------*|
|------------------------8h10s=|=12------------|-(12)------(12)\--*|
|------------------------------|---------------|------------------*|
|------------------------------|---------------|------------------*|
|------------------------------|---------------|------------------*|
|------------------------------|---------------|------------------*|
|
| Gtr III
|------------------------------|---------------|------------------*|
|------------------------------|---------------|------------------*|
|------------------------------|---------------|------------------*|
|--9---------------------------|-(9)-----------|--(9)-------------*|
|--7---------------------------|-(7)-----------|--(7)-------------*|
|--0---------------------------|-(0)-----------|--(0)-------------*|



***************************************************************************************
* Generated using Power Tab Editor by Brad Larsen - http://powertab.guitarnetwork.org *
***************************************************************************************
comments
print report bad tab
23 comments total. Showing first comments.
+6 reply
nasty_santa409 wrote on March 13 2004, 12:00 am

great tab, but it is sooooooooo long! it will take up about 20 pages of paper. sorry :(

+3 reply
met_al_lica69 wrote on April 11 2004, 12:00 am

dam!!! This is long.....how long did it take you...it helped me out alot!!!thanks

+6 reply
Dave_0987654321 wrote on September 22 2004, 12:00 am

hey ol buddy ol pal. Nice tab man..., too bad you suck haha just jokin wit ya. dude i am speechless...very long tab man you put lots of work into this...no complaint from me great job!! Evanescence still suck

I want to post or [tab]
guest
You may want to rate the tab now too:
select rating
Please do not post tabs as comments. Select "correction" instead!