Oops, an error
Loading. Please wait.

Welcome Home Sanitarium Bass Tab

ver2
ver2
More versions @911Tabs.com
15,918 views 3 this week
4 commentsread comments
1 2 3 4 5
worth learning
x 3
Autoscroll
+/-
esc
set tempo
stop
Contributor
Hey! There's an official Ultimate Guitar app which is ideal
for learning songs when you're away from computer. Get the app
WARNING: You are trying to view
                                    content from Ultimate-Guitar.com
                                    in an unauthorized application,
                                    which is prohibited.

                                    Please use an official Ultimate
                                    Guitar Tabs application for iPhone,
                                    iPad or Android to access legitimate
                                    chords, guitar, bass, and drum tabs
                                    from Ultimate-Guitar.com database.

                                    Type "ultimate guitar tabs" in Apple
                                    App Store's or Android Market's
                                    search to find the application.
                              SANITARIUM (Bassline)
                            As recorded by Metallica
                     (From the 1986 Album MASTER OF PUPPETS)

Music by Metallica
Transcribed by Zac (& Drums) for www.mikesguitarsite.co.uk

  Moderately Q=98
 4/4                     2/4            4/4
  Gtr I
|---------|-------------|--------------|-------|
|---------|-----7---7s5-|-(5)--5h==7---|-------|
|---------|-------------|--------------|--7----|
|---------|-------------|--------------|-------|
|
| Gtr II                  Gtr III        Gtr II
|---------|-------------|-22-----(22)--|-10----|
|---------|-------------|--------------|-10----|
|---------|-------------|--------------|-10----|
|---------|-------------|--------------|-------|


                  2/4            4/4
|----------------|-------------||-------------|--------------|
|--------7---7s9-|-(9)---5h7---||-------------|--------------|
|-(7)------------|-----7-------||-------3---3-|-5---5--------|
|----------------|-------------||-0---0-------|-------5---3--|
|
|----------------|-------------||-------------|--------------|
|--------x-----x-|-----x-----x-||-x---x-x---x-|-x---x-x---x--|
|----------------|-------------||-------------|--------------|
|----------------|-------------||-------------|--------------|


 2/4         4/4                               2/4         4/4
|-----------|-------------|-------------------|-----------|--------------|
|-----------|-------------|-------------------|-----------|--------------|
|-----------|-------3---3-|-5-----5-----------|-----------|-------3---3--|
|-(3)-3-5---|-0---0-------|---------5-------3-|-(3)-3-2---|-0---0--------|
|
|-----------|-------------|-------------------|-----------|--------------|
|-----x-x-x-|-x---x-x---x-|-x-x-x-x-x-x-x-x-x-|--x--x-x-x-|-x---x-x---x--|
|-----------|-------------|-------------------|-----------|--------------|
|-----------|-------------|-------------------|-----------|--------------|


               2/4         4/4
|-------------|-----------|-------------|--------------|
|-------------|-----------|-------------|--------------|
|-5---5-------|-----------|-------3---3-|-5---5--------|
|-------5---3-|-(3)-3-5---|-0---0-------|-------5----3-|
|
|-------------|-----------|-------------|--------------|
|-x---x-x---x-|-----x-x-x-|-x---x-x---x-|-x---x-x--x-x-|
|-------------|-----------|-------------|--------------|
|-------------|-----------|-------------|--------------|


 2/4         4/4                         2/4
|-----------|-------------|-------------|-----------|
|-----------|-------------|-------------|-----------|
|-----------|-------3---3-|-5---5-------|-----------|
|-(3)-3-2---|-0---0-------|-------5---3-|-(3)-3-5---|
|
|-----------|-------------|-------------|-----------|
|--x--x-x-x-|-x---x-x---x-|-x---x-x---x-|-----x-x-x-|
|-----------|-------------|-------------|-----------|
|-----------|-------------|-------------|-----------|


                                                        Verse
                                                         $
 4/4                                   2/4              4/4
|---------------|---------------------|---------------||--------------|
|---------------|---------------------|---------------||--------------|
|-------3---2-3-|-5-3---2-------------|---------------||-------3---3--|
|-0---0---------|-----------3-5-----3-|-(3)---3-2---2-||-0---0--------|
|
|---------------|---------------------|---------x-x-x-||--------------|
|-x---x-x---x---|-x---x-x-x-x-x-x-x-x-|--x--x-x-x-x-x-||-x---x-x---x--|
|---------------|---------------------|---------------||--------------|
|---------------|---------------------|---------------||--------------|


               2/4         4/4
|-------------|-----------|-------------|-----------------|
|-------------|-----------|-------------|-----------------|
|-5---5-------|-----------|-------3---3-|-5---5-----------|
|-------5---3-|-(3)-3-5---|-0---0-------|-------5-----3---|
|
|-------------|-----------|-------------|-----------------|
|-x---x-x---x-|-----x-x-x-|-x---x-x---x-|-x---x-x-x-x-x-x-|
|-------------|-----------|-------------|-----------------|
|-------------|-----------|-------------|-----------------|


 2/4           4/4                             2/4
|-------------|---------------|---------------|------------|
|-------------|---------------|---------------|------------|
|-------------|-------3---2-3-|-5-3-2---------|------------|
|-(3)-3-2-----|-0---0---------|-------3-5---3-|-(3)-3-2-2--|
|
|-------------|---------------|---------------|------------|
|--x--x-x-x-x-|-x---x-x---x---|-x-----x-x---x-|-----x-x-x--|
|-------------|---------------|---------------|------------|
|-------------|---------------|---------------|------------|


 4/4                                 2/4           4/4
|---------------|-------------------|-------------|-----------------|
|---------------|-------------------|-------------|-----------------|
|-------3---2-3-|-5-3-2-------------|-------------|-----2-2-----3-3-|
|-0---0---------|-------3-5-5---5-3-|-3---3-2---2-|-0-0-----0-0-----|
|
|---------------|-------------------|-------x-x-x-|-----------------|
|-x---x-x---x---|-x-x-x-x-x-x-x-x-x-|-x-x-x-x-x-x-|-x-----x-x-x---x-|
|---------------|-------------------|-------------|-----------------|
|---------------|-------------------|-------------|-----------------|


                   2/4       4/4
|-----------------|---------|-----------------|
|-----------------|---------|-----------------|
|-----5-5---------|---------|-----2-2-----3-3-|
|-0-0-----5-5-5-3-|-3-3-5-2-|-0-0-----0-0-----|
|
|-----------------|---------|-----------------|
|-x-----x-x-x-x-x-|-x-x-x-x-|-x-----x-x-x---x-|
|-----------------|---------|-----------------|
|-----------------|---------|-----------------|


                      2/4
|--------------------|------------|
|--------------------|------------|
|-----5-5------------|------------|
|-0-0------5-5-5-5-3-|-3-3-5-2----|
|
|--------------------|------------|
|-x-x-x-x--x-x-x-x-x-|-x-x-x-x-x--|
|--------------------|------------|
|--------------------|------------|


 4/4
|----------------------------|
|----------------------------|
|----------------3s2-----3s2-|
|-0--x-x-3s2-x-x-----x-x-----|
|
|----------------------------|
|-x--x-------x---x-x-x---x---|
|----------------------------|
|----------------------------|


|-------------------------------|----------------------------|
|---------0h2p==0---------------|----------------------------|
|-(2)---------------3-2---------|----------------3s2-----3s2-|
|-----------------------5-3-2-3-|-0--x-x-3s2-x-x-----x-x-----|
|
|---------------------------x-x-|----------------------------|
|--x---x--x---x---x-x-x-x-x-x-x-|-x--x-------x---x-x-x---x---|
|-------------------------------|----------------------------|
|-------------------------------|----------------------------|


|-------------------------------|----------------------------|
|-------------------------------|----------------------------|
|---(2)-2-2-2-2-2-2-3-2---2-0---|----------------3s2-----3s2-|
|-----------------------3-----1-|-0--x-x-3s2-x-x-----x-x-----|
|
|-x--x--x-x-x-x-x-x---x-----x---|----------------------------|
|-------------------x---x-x---x-|-x--x-------x---x-x-x---x---|
|-------------------------------|----------------------------|
|-------------------------------|----------------------------|


|---------------------------------|
|---------0h2p==0-----------------|
|-(2)---------------3-2-----------|
|-----------------------5-3-2-3---|
|
|---------------------------x-x---|
|--x---x--x---x---x-x-x-x-x-x-x---|
|---------------------------------|
|---------------------------------|


                        To Coda
|--------------------------|----------|------------------|---------------|
|--------------------------|----------|------------------|---------------|
|----------------3s2-----3-|-2--------|-2----------------|-------3---3---|
|-0--x-x-3s2-x-x-----x-x---|----------|------------------|-0---0---------|
|
|--------------------------|----------|-x----------------|---------------|
|-x--x-------x---x-x-x---x-|-x--------|-x----x-x-x-x-x-x-|-x---x-x---x---|
|--------------------------|----------|-x----------------|---------------|
|--------------------------|----------|------------------|---------------|


               2/4         4/4
|-------------|-----------|-------------|--------------|
|-------------|-----------|-------------|--------------|
|-5---5-------|-----------|-------3---3-|-5---5--------|
|-------5---3-|-(3)-3-5---|-0---0-------|-------5---3--|
|
|-------------|-----------|-------------|--------------|
|-x---x-x---x-|-----x-x-x-|-x---x-x---x-|-x---x-x---x--|
|-------------|-----------|-------------|--------------|
|-------------|-----------|-------------|--------------|


 2/4         4/4                         2/4
|-----------|-------------|-------------|-----------|
|-----------|-------------|-------------|-----------|
|-----------|-------3---3-|-5---5-------|-----------|
|-(3)-3-2---|-0---0-------|-------5---3-|-(3)-3-5---|
|
|-----------|-------------|-------------|-----------|
|-----x-x-x-|-x---x-x---x-|-x---x-x---x-|-----x-x-x-|
|-----------|-------------|-------------|-----------|
|-----------|-------------|-------------|-----------|


                                       D.S. al Coda   &
 4/4                                2/4
|--------------|-------------------|---------------||------------------------|
|--------------|-------------------|---------------||-0h2p==0----------------|
|-------3----3-|-5-----5-----------|---------------||-----------3-2----------|
|-0---0--------|---------5-5---5-3-|-(3)---3-2---2-||---------------5-3-2-3--|
|
|--------------|-------------------|---------------||-------------------x-x--|
|-x---x-x-x--x-|-x-x-x-x-x-x-x-x-x-|--x--x-x-x-x-x-||-x---x---x-x-x-x-x-x-x--|
|--------------|-------------------|---------------||------------------------|
|--------------|-------------------|---------------||------------------------|


 4/4                                                2/4
|--------------------------|-----------------------|-----------------------|
|--------------------------|-----------------------|-0h2p==0---------------|
|----------------3s2-----3-|-2---------------------|-----------3-2---------|
|-0--x-x-3s2-x-x-----x-x---|-----------------------|---------------5-3-2-3-|
|
|--------------------------|-----------------------|-----------------------|
|-x--x-------x---x-x-x---x-|-x--x-x-x--x-x-x-x-x-x-|-x---x---x-x-x-x-x-x-x-|
|--------------------------|-----------------------|-----------------------|
|--------------------------|-----------------------|-----------------------|


  Q=200
 4/4
|---------------|----------------|----------------|-------------------------|
|---------------|----------------|----------------|-------------------------|
|---------------|----------------|----------------|-------------------------|
|--0------------|-(0)------------|-(0)------------|-(0)---------------------|
|
|---------------|----------------|----------------|-------------------------|
|--x--x--x-x-x--|--x---x--x-x-x--|--x---x--x-x-x--|--x--x-x-x-x-x-x-x-x-x---|
|---------------|----------------|----------------|-------------------------|
|---------------|----------------|----------------|-------------------------|


|-----------------|-----------------|-----------------|-----------------|
|-----------------|-----------------|-----------------|-----------------|
|-----------------|-----------------|-----------------|-----------------|
|-0-0-0-0-0-0-0-0-|-0-0-0-0-0-0-0-0-|-0-0-0-0-0-0-0-0-|-0-0-0-0-0-0-0-0-|
|
|-----------------|-----------------|-----------------|-----------------|
|-x---x---x-x-x---|-x---x---x-x-x---|-x---x---x-x-x---|-x---x---x-x-x---|
|-----------------|-----------------|-----------------|-----------------|
|-----------------|-----------------|-----------------|-----------------|


|-----------------|-----------------|-----------------|----------------|
|-----------------|-----------------|-----------------|----------------|
|-----------------|-----------------|-----------------|----------------|
|-5h6---5h6-0-0-0-|-0-0-0-0-0-0-0-0-|-5h6---5h6---5h6-|---5h7--0-0-0-0-|
|
|-----------------|-----------------|-----------------|----------------|
|-x---x---x-x-x---|-x---x---x-x-x---|-x---x---x-x-x---|-x---x--x---x---|
|-----------------|-----------------|-----------------|----------------|
|-----------------|-----------------|-----------------|----------------|


|-----------------|------------------|-----------------|----------------|
|-----------------|------------------|-----------------|----------------|
|-----------------|------------------|-----------------|----------------|
|-5h6---5h6-0-0-0-|-0-0-0-0-0--0-0-0-|-5h6---5h6---5h6-|---5h7--0-0-0-0-|
|
|-----------------|------------------|-----------------|----------------|
|-x---x---x-x-x---|-x---x---x--x-x---|-x---x---x-x-x---|-x---x--x---x---|
|-----------------|------------------|-----------------|----------------|
|-----------------|------------------|-----------------|----------------|


|-----------------|------------------|-----------------|----------------|
|-----------------|------------------|-----------------|----------------|
|-----------------|------------------|-----------------|----------------|
|-5h6---5h6-0-0-0-|-0-0-0-0--0-0-0-0-|-5h6---5h6---5h6-|---5h7--0-0-0-0-|
|
|-----------------|------------------|-----------------|----------------|
|-x---x---x-x-x---|-x---x-x--x-x-x-x-|-x---x---x-x-x---|-x---x--x---x---|
|-----------------|------------------|-----------------|----------------|
|-----------------|------------------|-----------------|----------------|


|-----------------|-----------------|-----------------|----------------|
|-----------------|-----------------|-----------------|----------------|
|-----------------|-----------------|-----------------|----------------|
|-5h6---5h6-0-0-0-|-0-0-0-0-0-0-0-0-|-5h6---5h6---5h6-|---5h7--0-0-0-0-|
|
|-----------------|-----------------|-----------------|----------------|
|-x---x---x-x-x---|-x---x---x-x-x---|-x---x---x-x-x---|-x---x--x---x---|
|-----------------|-----------------|-----------------|----------------|
|-----------------|-----------------|-----------------|----------------|


  Q=98
|-------------------|-------------------|
|-------------------|-------------------|
|-0-2---------------|-0-2-5-5-----------|
|-----0-0-----------|-------------------|
|
|-------------------|-------------------|
|-x---x-x-x-x-x-x-x-|-x---x-x-x-x-x-x-x-|
|-------------------|-------------------|
|-------------------|-------------------|


|-------------------|-------------------------|
|-------------------|-------------------------|
|-0-2---------------|-0-2-3-3--3--2---2-2-----|
|-----1-1-----------|-------------------------|
|
|-------------------|-------------------------|
|-x---x-x-x-x-x-x-x-|-x---x-x--x--x-x-x-x-x---|
|-------------------|-------------------------|
|-------------------|-------------------------|


|-------------------|-------------------|
|-------------------|-------------------|
|-0-2---------------|-0-2-5-5-----------|
|-----0-0-----------|-------------------|
|
|-------------------|-------------------|
|-x---x-x-x-x-x-x-x-|-x---x-x-x-x-x-x-x-|
|-------------------|-------------------|
|-------------------|-------------------|


|-------------------|------------------------|
|-------------------|------------------------|
|-0-2---------------|-0-2-3-3----3-2-2-2-----|
|-----1-1-----------|------------------------|
|
|-------------------|------------------------|
|-x---x-x-x-x-x-x-x-|-x---x-x--x-x---x-x-----|
|-------------------|------------------------|
|-------------------|------------------------|


                                  Q=200
|---------------------------------||-----------------|
|---------------------------------||-----------------|
|---------------------------------||-----------------|
|-0-0-0-0-0-0-0-0-0-0-0-0-0-0-0-0-||-5h6---5h6-0-0-0-|
|
|---------------------------------||-----------------|
|-x-x-x-x-x-x-x-x-x-x-x-x-x-x-x-x-||-x---x---x---x---|
|---------------------------------||-----------------|
|---------------------------------||-----------------|


|-----------------|----------------|------------------|
|-----------------|----------------|------------------|
|-----------------|----------------|------------------|
|-0-0-0-0-0-0-0-0-|-5h6---5h6--5h6-|---5h7--0-0-0-0---|
|
|-----------------|----------------|--------x---x-----|
|-x---x---x---x---|-x---x---x--x---|-x---x--x---x-----|
|-----------------|----------------|------------------|
|-----------------|----------------|------------------|


|-----------------|-----------------|----------------|----------------|
|-----------------|-----------------|----------------|----------------|
|-----------------|-----------------|----------------|----------------|
|-5h6---5h6-0-0-0-|-0-0-0-0-0-0-0-0-|-5h6---5h6--5h6-|---5h7--0-0-0-0-|
|
|-----------------|-----------------|----------------|--------x---x---|
|-x---x---x---x---|-x-x-x-x-x-x-x-x-|-x---x---x--x---|-x---x--x---x---|
|-----------------|-----------------|----------------|----------------|
|-----------------|-----------------|----------------|----------------|


|-----------------|-----------------|----------------|----------------|
|-----------------|-----------------|----------------|----------------|
|-----------------|-----------------|----------------|----------------|
|-5h6---5h6-0-0-0-|-0-0-0-0-0-0-0-0-|-5h6---5h6--5h6-|---5h7--0-0-0-0-|
|
|-----------------|-----------------|----------------|--------x---x---|
|-x---x---x---x---|-x-x-x-x-x-x-x-x-|-x---x---x--x---|-x---x--x---x---|
|-----------------|-----------------|----------------|----------------|
|-----------------|-----------------|----------------|----------------|


|-----------------|-----------------|----------------|
|-----------------|-----------------|----------------|
|-----------------|-----------------|----------------|
|-5h6---5h6-0-0-0-|-0-0-0-0-0-0-0-0-|-5h6---5h6--5h6-|
|
|-----------------|-----------------|----------------|
|-x---x---x---x---|-x-x-x-x-x-x-x-x-|-x---x---x--x---|
|-----------------|-----------------|----------------|
|-----------------|-----------------|----------------|


                 Q=98
|----------------||---------------|------------------|
|----------------||---------------|------------------|
|----------------||-0-2-----------|-0-2-5-5--5-------|
|---5h7--0-0-0-0-||-----0-0--0----|------------------|
|
|--------x---x---||---------------|------------------|
|-x---x--x---x---||-x-x-x-x--x----|-x-x-x-x--x-------|
|----------------||---------------|------------------|
|----------------||---------------|------------------|


|-------------------|---------------------|
|-------------------|---------------------|
|-0-2---------------|-0-2-5-5-------------|
|-----0-0-----------|---------------------|
|
|-------------------|---------------------|
|-x-x-x-x--x-x-x-x--|-x---x-x-x--x-x-x-x--|
|-------------------|---------------------|
|-------------------|---------------------|


|--------------------|---------------------|
|--------------------|---------------------|
|-0-2----------------|-0-2-3-3---3-2-2-2---|
|-----1-1------------|---------------------|
|
|--------------------|---------------------|
|-x---x-x-x--x-x-x-x-|-x-x-x-x-x-x-x-x-x-x-|
|--------------------|---------------------|
|--------------------|---------------------|


|-------------------|--------------------|
|-------------------|--------------------|
|-0-2---------------|-0-2-5-5------------|
|-----0-0-----------|--------------------|
|
|-------------------|--------------------|
|-x-x-x-x--x-x-x-x--|-x---x-x-x--x-x-x-x-|
|-------------------|--------------------|
|-------------------|--------------------|


|--------------------|----------------------------|
|--------------------|----------------------------|
|-0-2----------------|-0-2-3-3---3-2---2-2--------|
|-----1-1------------|----------------------------|
|
|--------------------|----------------------------|
|-x---x-x-x--x-x-x-x-|-x-x-x-x-x-x-x-x-x-x-x-x-x--|
|--------------------|----------------------------|
|--------------------|----------------------------|


|-------------------------|-------------------------|
|-------------------------|-------------------------|
|-0-2---------------------|-0-2---5-5---------------|
|-------0-0---------------|-------------------------|
|
|-------------------------|-------------------------|
|-x---x---x-x-x-x-x-x-x-x-|-x---x---x-x-x-x-x-x-x-x-|
|-------------------------|-------------------------|
|-------------------------|-------------------------|


|-------------------------|----------------------------------|
|-------------------------|----------------------------------|
|-0-2---------------------|-0-2---3-3-----3-2---2-2----------|
|-------1-1---------------|----------------------------------|
|
|-------------------------|----------------------------------|
|-x---x---x-x-x-x-x-x-x-x-|-x---x---x-x-x-x-x-x-x-x-x-x-x----|
|-------------------------|----------------------------------|
|-------------------------|----------------------------------|


|-------------------------|-------------------------|
|-------------------------|-------------------------|
|-0-2---------------------|-0-2---5-5---------------|
|-------0-0---------------|-------------------------|
|
|-------------------------|-------------------------|
|-x---x---x-x-x-x-x-x-x-x-|-x---x---x-x-x-x-x-x-x-x-|
|-------------------------|-------------------------|
|-------------------------|-------------------------|


|-------------------------|-------------------------------|
|-------------------------|-------------------------------|
|-0-2---------------------|-0-2---3-3-----3-2---2-2-------|
|-------1-1---------------|-------------------------------|
|
|-------------------------|-------------------------------|
|-x---x---x-x-x-x-x-x-x-x-|-x---x---x-x-x-x-x-x-x-x-x-x-x-|
|-------------------------|-------------------------------|
|-------------------------|-------------------------------|


|-------------------------|-------------------------|
|-------------------------|-------------------------|
|-0-2---------------------|-0-2---5-5---------------|
|-------0-0---------------|-------------------------|
|
|-------------------------|-------------------------|
|-x---x---x-x-x-x-x-x-x-x-|-x---x---x-x-x-x-x-x-x-x-|
|-------------------------|-------------------------|
|-------------------------|-------------------------|


|-------------------------|------------------------------|
|-------------------------|------------------------------|
|-0-2---------------------|-0-2---3-3-----3-2---2-2------|
|-------1-1---------------|------------------------------|
|
|-------------------------|------------------------------|
|-x---x---x-x-x-x-x-x-x-x-|-x---x---x-x-x-x---x---x-x-x--|
|-------------------------|------------------------------|
|-------------------------|------------------------------|


|-------------------------|-------------------------|
|-------------------------|-------------------------|
|-0-2---------------------|-0-2---5-5---------------|
|-------0-0---------------|-------------------------|
|
|-------------------------|-------------------------|
|-x---x---x-x-x-x-x-x-x-x-|-x---x---x-x-x-x-x-x-x-x-|
|-------------------------|-------------------------|
|-------------------------|-------------------------|


|-------------------------|------------------------------||
|-------------------------|------------------------------||
|-0-2---------------------|-0-2---3-3-----3-2---2-2------||
|-------1-1---------------|------------------------------||
|
|-------------------------|------------------------------||
|-x---x---x-x-x-x-x-x-x-x-|-x---x---x-x-x-x---x---x-x-x--||
|-------------------------|------------------------------||
|-------------------------|------------------------------||


                                H.=H
|--------------|--------------|--------------|--------------------|
|--------------|--------------|--------------|--------------------|
|-0-2----------|-0-2-5-5------|-0-2----------|-0-2-3-3--3-2-2-2---|
|-----0-0------|--------------|-----1-1------|--------------------|
|
|--------------|--------------|--------------|--------------------|
|-x-x-x-x------|-x-x-x-x------|-x-x-x-x------|-x-x-x-x------------|
|-x-x-x-x------|-x-x-x-x------|-x-x-x-x------|-x-x-x-x------------|
|--------------|--------------|--------------|--------------------|


|-------------------|-------------------|
|-------------------|-------------------|
|-0-2---------------|-0-2-5-5--5-5-5-5--|
|-----0-0--0-0-0-0--|-------------------|
|
|-------------------|-------------------|
|-x-x-x-x--x-x-x-x--|-x-x-x-x--x-x-x-x--|
|-x-x-x-x-----------|-x-x-x-x-----------|
|-------------------|-------------------|


|-------------------|--------------------|
|-------------------|--------------------|
|-0-2---------------|-0-2-3-3--2-2-2-2---|
|-----1-1--1-1-1-1--|--------------------|
|
|-------------------|--------------------|
|-x-x-x-x--x-x-x-x--|-x-x-x-x--x-x-x-x---|
|-x-x-x-x-----------|-x-x-x-x------------|
|-------------------|--------------------|


                                    Q=98
                                    TP
|-------------------|-------------|----------|
|-------------------|-------------|----------|
|-2-2-2-2--2-2-2-2--|-2--0--------|----------|
|-------------------|-------3--2--|-0--------|
|
|                                   TP
|-------------------|-------------|----------|
|-x-x-x-x--x-x-x-x--|-x--x--x--x--|----------|
|-------------------|-x--x--------|----------|
|-------------------|-------x--x--|-x--------|


    TP
|---------------------------------|----------*|
|---------------------------------|----------*|
|---------------------------------|----------*|
|--(0)----------------------------|--7\------*|
|
|---------------------------------|----------*|
|------20-10-10-20-10-10-20-10-20-|-10-------*|
|---------------------------------|----------*|
|---------------------------------|----------*|
comments
We did not receive enough feedback on this tab! Please rate:
print report bad tab
1 2 3 4 5
4 comments total. Showing first comments.
0 reply
..NEM.. wrote on March 2 2006, 10:20 am

nice

+1 reply
benttwig33 wrote on February 26 2007, 11:28 pm

good but confusing, if words were added very now and then so you canknow where you are would help alot

+1 reply
WiggityJoe wrote on September 5 2009, 03:47 pm

wrong

I want to post or [tab]
guest
You may want to rate the tab now too:
select rating
Please do not post tabs as comments. Select "correction" instead!