Oops, an error
Loading. Please wait.

Welcome Home Sanitarium Tab

ver2
ver2
More versions @911Tabs.com
37,980 views 33 this week
3 commentsread comments
1 2 3 4 5
accurate
x 5
Autoscroll
+/-
esc
set tempo
stop
Contributor
WARNING: You are trying to view
                                    content from Ultimate-Guitar.com
                                    in an unauthorized application,
                                    which is prohibited.

                                    Please use an official Ultimate
                                    Guitar Tabs application for iPhone,
                                    iPad or Android to access legitimate
                                    chords, guitar, bass, and drum tabs
                                    from Ultimate-Guitar.com database.

                                    Type "ultimate guitar tabs" in Apple
                                    App Store's or Android Market's
                                    search to find the application.
Artist: Metallica
Album: Master of Puppets

Lead Guitar, Standard Tuning
                                                 |--3-|      
     W                      E  E     E  E  E  E  S S  S  E   
E||-------------------|--<>12--L--------------3--3-5p-3p-2--|
B||-------------------|-----------<>12--L--L-----0----------|
G||-------------------|-------------------------------------|
D||-------------------|-------------------------------------|
A||-------------------|-------------------------------------|
E||--0----------------|-------------------------------------|
 
 
  W                      E  E     E  E  E  E  E.  S  
-------------------|--<>12--L--------------2--2---3-|
-------------------|-----------<>12--L--L-----0-----|
-------------------|--------------------------------|
-------------------|--------------------------------|
-------------------|--------------------------------|
--0----------------|--------------------------------|
 
 
  H           E     Q.        H           E     Q.      
--0--------<>12------------|-----------<>12------------|
-----------------<>12------|-----------------<>12------|
---------------------------|---------------------------|
---------------------------|---------------------------|
---------------------------|---------------------------|
--0------------------------|--0------------------------|
 
 
  H           E     Q.        H           E     E     Q     
-----------<>12------------|-----------<>12----------------|
-----------------<>12------|-----------------<>12----------|
---------------------------|-----------------------<>12----|
---------------------------|-------------------------------|
---------------------------|-------------------------------|
--0------------------------|--0----------------------------|
 
 
    E  E  E  E  E  E  E  E     E  E  E  E  E  E  E    E     E  E    E  E   4x 
|---------------------------|----------------------------|------------------||
|---------------------------|----------------------------|------------------||
|*-----------0-----------0--|-----------0----------------|----------------*-||
|*--------4-----------5-----|--------7-----------0-------|-----0-------0--*-||
|------2-----------3--------|-----5-----------4----------|--2---------------||
|---0-----------0-----------|--0-----------5--------5g3--|--------3g5-------||
 
 
  E  E  E  E  E  E  E  E     E  E  E  E  E  E  E    E     E  E    E  E   
--------------------------|----------------------------|----------------|
--------------------------|----------------------------|----------------|
-----------0-----------0--|-----------0----------------|----------------|
--------4-----------5-----|--------7-----------0-------|-----0-------0--|
-----2-----------3--------|-----5-----------4----------|--2-------------|
--0-----------0-----------|--0-----------5--------5g3--|--------3g5-----|
 
 
  E  E  E  E  E  E  E  E     E  E  E  E  E  E  E    E     E  E    E  E   
--------------------------|----------------------------|----------------|
--------------------------|----------------------------|----------------|
-----------0-----------0--|-----------0----------------|----------------|
--------4-----------5-----|--------7-----------0-------|-----0-------0--|
-----2-----------3--------|-----5-----------4----------|--2-------------|
--0-----------0-----------|--0-----------5--------5g3--|--------3g5-----|
 
 
  E  E  E  E  E  E  E  E     E  E  E  E  E  E  E    E     E  E    E  E   
--------------------------|----------------------------|----------------|
--------------------------|----------------------------|----------------|
-----------0-----------0--|-----------0----------------|----------------|
--------4-----------5-----|--------7-----------0-------|-----0-------0--|
-----2-----------3--------|-----5-----------4----------|--2-------------|
--0-----------0-----------|--0-----------5--------5g3--|--------3g5-----|
 
 
  E  E  E  E  E  E  E  E     E  E  E  E  E  E  E    E     E  E    E  E   
--------------------------|----------------------------|----------------|
--------------------------|----------------------------|----------------|
-----------0-----------0--|-----------0----------------|----------------|
--------4-----------5-----|--------7-----------0-------|-----0-------0--|
-----2-----------3--------|-----5-----------4----------|--2-------------|
--0-----------0-----------|--0-----------5--------5g3--|--------3g5-----|
 
 
  Welcome to where time stands still.                       
  E                                   E  E  E  E  E  E  E   
-----------------------------------------------------------|
-----------------------------------------------------------|
--------------------------------------------0-----------0--|
-----------------------------------------4-----------5-----|
--------------------------------------2-----------3--------|
--0--------------------------------------------0-----------|
 
 
  No one leaves and no one will.________________                         
  E                                              E  E  E  E  E  E    E   
------------------------------------------------------------------------|
------------------------------------------------------------------------|
-------------------------------------------------------0----------------|
----------------------------------------------------7-----------0-------|
-------------------------------------------------5-----------4----------|
--0-------------------------------------------------------5--------5g3--|
 
 
                   Moon is full, never seems to change.                        
  E  E    E  E     E                                     E  E  E  E  E  E  E   
----------------|-------------------------------------------------------------|
----------------|-------------------------------------------------------------|
----------------|----------------------------------------------0-----------0--|
-----0-------0--|-------------------------------------------4-----------5-----|
--2-------------|----------------------------------------2-----------3--------|
--------3g5-----|--0----------------------------------------------0-----------|
 
 
  Just labeled mentaly deranged.________________                         
  E                                              E  E  E  E  E  E    E   
------------------------------------------------------------------------|
------------------------------------------------------------------------|
-------------------------------------------------------0----------------|
----------------------------------------------------7-----------0-------|
-------------------------------------------------5-----------4----------|
--0-------------------------------------------------------5--------5g3--|
 
 
                   Dream the same thing ev'ry night.                       
  E  E    E  E     E                                 E  E  E  E  E  E  E   
----------------|---------------------------------------------------------|
----------------|---------------------------------------------------------|
----------------|------------------------------------------0-----------0--|
-----0-------0--|---------------------------------------4-----------5-----|
--2-------------|------------------------------------2-----------3--------|
--------3g5-----|--0------------------------------------------0-----------|
 
 
  I see your freedom in my sight._________________                         
  E                                                E  E  E  E  E  E    E   
--------------------------------------------------------------------------|
--------------------------------------------------------------------------|
---------------------------------------------------------0----------------|
------------------------------------------------------7-----------0-------|
---------------------------------------------------5-----------4----------|
--0---------------------------------------------------------5--------5g3--|
 
 
                   No locked doors, no windows barred.                       
  E  E    E  E     E                                   E  E  E  E  E  E  E   
----------------|-----------------------------------------------------------|
----------------|-----------------------------------------------------------|
----------------|--------------------------------------------0-----------0--|
-----0-------0--|-----------------------------------------4-----------5-----|
--2-------------|--------------------------------------2-----------3--------|
--------3g5-----|--0--------------------------------------------0-----------|
 
 
  No things to make my brain seem scarred.___                         
  E                                           E  E  E  E  E  E    E   
---------------------------------------------------------------------|
---------------------------------------------------------------------|
----------------------------------------------------0----------------|
-------------------------------------------------7-----------0-------|
----------------------------------------------5-----------4----------|
--0----------------------------------------------------5--------5g3--|
 
 
                   Sleep my friend, and you will see.                       
  E  E    E  E     E                                  E  E  E  E  E  E  E   
----------------|----------------------------------------------------------|
----------------|----------------------------------------------------------|
----------------|-------------------------------------------0-----------0--|
-----0-------0--|----------------------------------------4-----------5-----|
--2-------------|-------------------------------------2-----------3--------|
--------3g5-----|--0-------------------------------------------0-----------|
 
 
  that dream is my reality._______                         
  E                                E  E  E  E  E  E    E   
----------------------------------------------------------|
----------------------------------------------------------|
-----------------------------------------0----------------|
--------------------------------------7-----------0-------|
-----------------------------------5-----------4----------|
--0-----------------------------------------5--------5g3--|
 
 
  ________ They             
  E             E    E  E   
---------------------------|
---------------------------|
---------------------------|
----------------0-------0--|
--2------------------------|
-------------------3g5-----|
 
 
  keep me locked up in this cage._                       
  E                                E  E  E  E  E  E  E   
--------------------------------------------------------|
--------------------------------------------------------|
-----------------------------------------0-----------0--|
--------------------------------------4-----------5-----|
-----------------------------------2-----------3--------|
--0-----------------------------------------0-----------|
 
 
  Can't see it's why my brain says rage?.__________                         
  E                                                 E  E  E  E  E  E    E   
---------------------------------------------------------------------------|
---------------------------------------------------------------------------|
----------------------------------------------------------0----------------|
-------------------------------------------------------7-----------0-------|
----------------------------------------------------5-----------4----------|
--0----------------------------------------------------------5--------5g3--|
 
 
     _________                                             
  E  E           E  E     Q    S S S  S S S S  S S S S  S  
-----------------------|----------------------------------|
-----------------------|----------------------------------|
-----------------------|--------------------5S-4-----5S-4-|
-----0--------------0--|-----------5S-4-----5S-4-----5S-4-|
--2--------------------|-----------5S-4-----3S-2-----3S-2-|
---------------3g5-----|--0----x-x-3S-2-x-x------x-x------|
 
 
             San           -           i                                        
                                                                   PM PM PM PM P
             |-------------------------3-------------------------|              
   H         S                                                S  S S  S  S  S  S
--------------------------------------------------------------------------------
--------------------------------------------------------------------------------
--(4)---------------------------------------------------------------------------
--(4)--------0h-----------------------------------------------2p-0--------------
--(2)--------------------------------------------------------------3--2---------
-------------------------------------------------------------------------5--3--2
 
 
  Q    S S S  S S S S  S S S S  S  
----------------------------------|
----------------------------------|
--------------------5S-4-----5S-4-|
-----------5S-4-----5S-4-----5S-4-|
-----------5S-4-----3S-2-----3S-2-|
--0----x-x-3S-2-x-x------x-x------|
 
 
                      leave            me                be.  
       PM PM PM PM PM PM                                      
   E   S  S  S  S  S  S     S S E         S S E               
-------------------------------------------------------------|
-------------------------------------------------------------|
--(4)--------------------------------------------------------|
--(4)--------------------------------------------------------|
--(2)--2--2--2--2--2--2-----3-2-------------x-3--------------|
--------------------------------3---------L-x-1--------------|
 
 
  Q    S S S  S S S S  S S S S  S  
----------------------------------|
----------------------------------|
--------------------5S-4-----5S-4-|
-----------5S-4-----5S-4-----5S-4-|
-----------5S-4-----3S-2-----3S-2-|
--0----x-x-3S-2-x-x------x-x------|
 
 
             San           -           i                                        
                                                                   PM PM PM PM P
             |-------------------------3-------------------------|              
   H         S                                                S  S S  S  S  S  S
--------------------------------------------------------------------------------
--------------------------------------------------------------------------------
--(4)---------------------------------------------------------------------------
--(4)--------0h-----------------------------------------------2p-0--------------
--(2)--------------------------------------------------------------3--2---------
-------------------------------------------------------------------------5--3--2
 
 
                                   Just leave me alone  
  Q    S S S  S S S S  S S S E     W                    
--------------------------------|----------------------|
--------------------------------|----------------------|
--------------------5S-4-----5--|--4-------------------|
-----------5S-4-----5S-4-----5--|--4-------------------|
-----------5S-4-----3S-2-----3--|--2-------------------|
--0----x-x-3S-2-x-x------x-x----|----------------------|
 
 
  E  S S S  S S S  H            S  S  S  S  E   E   H         
----------------------------|--------15-17-19--19--19--------|
----------------------------|--17-19-------------------------|
----------------------------|--------------------------------|
--------------7-7/----------|--------------------------------|
-----5-5-7s-9---------------|--------------------------------|
--7-------------------------|--------------------------------|
 
 
   S   S   E   E   S   S  E   E   S  T   T  E      H         
--17h-19p-17--15--17h-19-17------17-19p-17-17--|--15--------|
-----------------------------19----------------|------------|
-----------------------------------------------|------------|
-----------------------------------------------|------------|
-----------------------------------------------|------------|
-----------------------------------------------|------------|
 
 
   H.             E  E   
--14br------------L-----|
------------------------|
------------------------|
------------------------|
------------------------|
------------------------|
 
 
               |---3---|                                        
   S  S  S  S  T   T   T  S  S  S  S  S  T   T  S  S  S  S   S  
--17-15-14-15-14h-15p-14----14---------------------------------|
-------------------------17----17-17-14-15p-14----14-----------|
-----------------------------------------------16----16-14s-12-|
---------------------------------------------------------------|
---------------------------------------------------------------|
---------------------------------------------------------------|
 
 
   S   S  S  S  S  S  S  S     S   E.   Q     E  E   S   S  S  S   
---------------------------|-------------------------------17-----|
---------------------------|------------------------17s-15----15S-|
--14p-12----12-------------|--------------------------------------|
---------16----16-14-12----|--12h-14~---L~----L-------------------|
------------------------16-|--------------------------------------|
---------------------------|--------------------------------------|
 
 
   S  S  S   S  S  S   S  S  S  S  S S  S S S S    S S E     E  E   
-----15--------14--------12-------10------7-----|------------------|
--14----14s-12----12s-10----10s-8----8s-7---7---|------------------|
----------------------------------------------7-|----7-9--9g11--9--|
------------------------------------------------|--9---------------|
------------------------------------------------|------------------|
------------------------------------------------|------------------|
 
 
  H        E  S S E  E     E  E  Q     E  E  E   E     E  E   E  E   
------------------------|--------------------5------|-----3---------|
------------------------|---------------------------|---------------|
--9-----------9-9-9--9--|--9--7-----------6---------|--4---------6--|
------------------------|--------5----/7--------/5--|--------/7-----|
------------------------|---------------------------|---------------|
------------------------|---------------------------|---------------|
 
 
  Build my fear of what's out there.                       
  E                                  E  E  E  E  E  E  E   
----------------------------------------------------------|
----------------------------------------------------------|
-------------------------------------------0-----------0--|
----------------------------------------4-----------5-----|
-------------------------------------2-----------3--------|
--0-------------------------------------------0-----------|
 
 
  Cannot breathe the open air.____________                         
  E                                        E  E  E  E  E  E    E   
------------------------------------------------------------------|
------------------------------------------------------------------|
-------------------------------------------------0----------------|
----------------------------------------------7-----------0-------|
-------------------------------------------5-----------4----------|
--0-------------------------------------------------5--------5g3--|
 
 
                   Whisper things into my brain,                       
  E  E    E  E     E                             E  E  E  E  E  E  E   
----------------|-----------------------------------------------------|
----------------|-----------------------------------------------------|
----------------|--------------------------------------0-----------0--|
-----0-------0--|-----------------------------------4-----------5-----|
--2-------------|--------------------------------2-----------3--------|
--------3g5-----|--0--------------------------------------0-----------|
 
 
  assuring me that I'm insane.__                         
  E                              E  E  E  E  E  E    E   
--------------------------------------------------------|
--------------------------------------------------------|
---------------------------------------0----------------|
------------------------------------7-----------0-------|
---------------------------------5-----------4----------|
--0---------------------------------------5--------5g3--|
 
 
  ____             They             
  E                     E    E  E   
-----------------------------------|
-----------------------------------|
-----------------------------------|
------------------------0-------0--|
--2--------------------------------|
---------------------------3g5-----|
 
 
  think our heads are in their hands._                       
  E                                    E  E  E  E  E  E  E   
------------------------------------------------------------|
------------------------------------------------------------|
---------------------------------------------0-----------0--|
------------------------------------------4-----------5-----|
---------------------------------------2-----------3--------|
--0---------------------------------------------0-----------|
 
 
  but vi'lent use brings vi'lent plans._____________                         
  E                                                  E  E  E  E  E  E    E   
----------------------------------------------------------------------------|
----------------------------------------------------------------------------|
-----------------------------------------------------------0----------------|
--------------------------------------------------------7-----------0-------|
-----------------------------------------------------5-----------4----------|
--0-----------------------------------------------------------5--------5g3--|
 
 
                   Keep him tied, it makes him well.__                       
  E  E    E  E     E                                   E  E  E  E  E  E  E   
----------------|-----------------------------------------------------------|
----------------|-----------------------------------------------------------|
----------------|--------------------------------------------0-----------0--|
-----0-------0--|-----------------------------------------4-----------5-----|
--2-------------|--------------------------------------2-----------3--------|
--------3g5-----|--0--------------------------------------------0-----------|
 
 
  He's getting better; can't you tell.______________                         
  E                                                  E  E  E  E  E  E    E   
----------------------------------------------------------------------------|
----------------------------------------------------------------------------|
-----------------------------------------------------------0----------------|
--------------------------------------------------------7-----------0-------|
-----------------------------------------------------5-----------4----------|
--0-----------------------------------------------------------5--------5g3--|
 
 
  _                No more can they keep us in.______                       
  E  E    E  E     E                                  E  E  E  E  E  E  E   
----------------|----------------------------------------------------------|
----------------|----------------------------------------------------------|
----------------|-------------------------------------------0-----------0--|
-----0-------0--|----------------------------------------4-----------5-----|
--2-------------|-------------------------------------2-----------3--------|
--------3g5-----|--0-------------------------------------------0-----------|
 
 
  Listen, damn it, we will win.___________________                         
  E                                                E  E  E  E  E  E    E   
--------------------------------------------------------------------------|
--------------------------------------------------------------------------|
---------------------------------------------------------0----------------|
------------------------------------------------------7-----------0-------|
---------------------------------------------------5-----------4----------|
--0---------------------------------------------------------5--------5g3--|
 
 
              They   
  E  E    E      E   
--------------------|
--------------------|
--------------------|
-----0-----------0--|
--2-----------------|
--------3g5---------|
 
 
  see it right, they see it well,                 but they thing this saves us f
  E                                E  E  E  E  E  E                             
--------------------------------------------------------------------------------
--------------------------------------------------------------------------------
-----------------------------------------0--------------------------------------
--------------------------------------4-----------5-----------------------------
-----------------------------------2-----------3--------------------------------
--0-----------------------------------------0-----------------------------------
 
 
  E  E  E  E  E  E  E    E     E  E    E  E   
----------------------------|----------------|
----------------------------|----------------|
-----------0----------------|----------------|
--------7-----------0-------|-----0-------0--|
-----5-----------4----------|--2-------------|
--0-----------5--------5g3--|--------3g5-----|
 
 
  Q    S S S  S S S S  S S S S  S  
----------------------------------|
----------------------------------|
--------------------5S-4-----5S-4-|
-----------5S-4-----5S-4-----5S-4-|
-----------5S-4-----3S-2-----3S-2-|
--0----x-x-3S-2-x-x------x-x------|
 
 
             San           -           i                                        
                                                                   PM PM PM PM P
             |-------------------------3-------------------------|              
   H         S                                                S  S S  S  S  S  S
--------------------------------------------------------------------------------
--------------------------------------------------------------------------------
--(4)---------------------------------------------------------------------------
--(4)--------0h-----------------------------------------------2p-0--------------
--(2)--------------------------------------------------------------3--2---------
-------------------------------------------------------------------------5--3--2
 
 
  Q    S S S  S S S S  S S S S  S  
----------------------------------|
----------------------------------|
--------------------5S-4-----5S-4-|
-----------5S-4-----5S-4-----5S-4-|
-----------5S-4-----3S-2-----3S-2-|
--0----x-x-3S-2-x-x------x-x------|
 
 
                      leave          me             be.  
       PM PM PM PM PM PM    PM PM                        
   E   S  S  S  S  S  S     S  S  E  S  S E              
--------------------------------------------------------|
--------------------------------------------------------|
--(4)---------------------------------------------------|
--(4)---------------------------------------------------|
--(2)--2--2--2--2--2--2-----3--2--------x-3-------------|
----------------------------------3--L--x-1-------------|
 
 
  Q    S S S  S S S S  S S S S  S  
----------------------------------|
----------------------------------|
--------------------5S-4-----5S-4-|
-----------5S-4-----5S-4-----5S-4-|
-----------5S-4-----3S-2-----3S-2-|
--0----x-x-3S-2-x-x------x-x------|
 
 
             San           -           i                                        
                                                                   PM PM PM PM P
             |-------------------------3-------------------------|              
   H         S                                                S  S S  S  S  S  S
--------------------------------------------------------------------------------
--------------------------------------------------------------------------------
--(4)---------------------------------------------------------------------------
--(4)--------0h-----------------------------------------------2p-0--------------
--(2)--------------------------------------------------------------3--2---------
-------------------------------------------------------------------------5--3--2
 
 
                                   just leave me alone  
  Q    S S S  S S S S  S S S E     W                    
--------------------------------|----------------------|
--------------------------------|----------------------|
--------------------5S-4-----5--|--4-------------------|
-----------5S-4-----5S-4-----5--|--4-------------------|
-----------5S-4-----3S-2-----3--|--2-------------------|
--0----x-x-3S-2-x-x------x-x----|----------------------|
 
 
          PM PM PM PM PM PM                                   
  |--3--|                                                     
  S  S  S S  S  S  S  S  S     Q    S S S  S S S S  S S S E   
----------------------------|--------------------------------|
----------------------------|--------------------------------|
----------------------------|--------------------5S-4-----5--|
--0h-2p-0-------------------|-----------5S-4-----5S-4-----5--|
----------3--2--------------|-----------5S-4-----3S-2-----3--|
----------------5--3--2--3--|--0----x-x-3S-2-x-x------x-x----|
 
 
  W                 
-------------------|
-------------------|
--4----------------|
--4----------------|
--2----------------|
-------------------|
 
 
  San           -           i                                          -        
                                                        PM PM PM PM PM PM       
  |-------------------------3-------------------------|                         
  S                                                S  S S  S  S  S  S  S        
--------------------------------------------------------------------------------
--------------------------------------------------------------------------------
--------------------------------------------------------------------------------
--0h-----------------------------------------------2p-0-------------------------
--------------------------------------------------------3--2--------------------
--------------------------------------------------------------5--3--2--3--------
 
 
                                           pick slide        
  W                   W                    W                 
-------------------|-------------------|--------------------|
-------------------|-------------------|--------------------|
-------------------|-------------------|--------------------|
--2----------------|--L----------------|--------------------|
--2----------------|--L----------------|---x----------------|
--0----------------|--L----------------|---x----------------|
 
 
    PM PM PM PM PM PM PM PM                        PM PM PM  
    E  E  E  E  E  E  E  E   4x   E   E  E  E   E  E  E  E   
|-----------------------------||----------------------------|
|-----------------------------||----------------------------|
|*--------------------------*-||----------------------------|
|*--------------------------*-||--0h--2-----0h--2-----------|
|-----------------------------||--0h--2-----0h--2-----------|
|---0--0--0--0--0--0--0--0----||-------------------0--0--0--|
 
 
  PM PM PM PM PM PM PM PM                                
  E  E  E  E  E  E  E  E     E   E  E  E   E  E  E   E   
--------------------------|-----------------------------|
--------------------------|-----------------------------|
--------------------------|-----------------------------|
--------------------------|--0h--1-----0h--1-----0h--1--|
--------------------------|--0h--1-----0h--1-----0h--1--|
--0--0--0--0--0--0--0--0--|-----------------------------|
 
 
            PM PM PM PM PM                       PM PM PM  
  E  E   E  E  E  E  E  E       E   E  E  E   E  E  E  E   
---------------------------||-----------------------------|
---------------------------||-----------------------------|
---------------------------||*----------------------------|
-----0h--2-----------------||*--0h--1-----0h--1-----------|
-----0h--2-----------------||---0h--1-----0h--1-----------|
------------0--0--0--0--0--||--------------------0--0--0--|
 
 
  PM PM PM PM PM PM PM PM                                
  E  E  E  E  E  E  E  E     E   E  E  E   E  E  E   E   
--------------------------|-----------------------------|
--------------------------|-----------------------------|
--------------------------|-----------------------------|
--------------------------|--0h--1-----0h--1-----0h--1--|
--------------------------|--0h--1-----0h--1-----0h--1--|
--0--0--0--0--0--0--0--0--|-----------------------------|
 
 
            PM PM PM PM PM                                                   
  E  E   E  E  E  E  E  E   3x   S E  S H.              S E  S H.            
-----------------------------||----------------------|----------------------|
-----------------------------||----------------------|----------------------|
---------------------------*-||----------------------|-------7-7------------|
-----0h--2-----------------*-||--0-2--2-2------------|--0-2--7-7------------|
-----0h--2-------------------||--0-2--2-2------------|--0-2--5-5------------|
------------0--0--0--0--0----||-------0-0------------|----------------------|
 
 
  S E  S H.              S E  S Q    S E  S Q       S E  S H.            
----------------------|--------------------------|----------------------|
----------------------|--------------------------|----------------------|
----------------------|-------5-5---------4-4----|----------------------|
--0-2--3-3------------|--0-2--5-5----5-4--4-4----|--0-2--2-2------------|
--0-2--3-3------------|--0-2--3-3----3-2--2-2----|--0-2--2-2------------|
-------1-1------------|--------------------------|-------0-0------------|
 
 
  S E  S H.              S E  S H.              S E  S Q    S E  S Q     
----------------------|----------------------|--------------------------|
----------------------|----------------------|--------------------------|
-------7-7------------|----------------------|-------5-5---------4-4----|
--0-2--7-7------------|--0-2--3-3------------|--0-2--5-5----5-4--4-4----|
--0-2--5-5------------|--0-2--3-3------------|--0-2--3-3----3-2--2-2----|
----------------------|-------1-1------------|--------------------------|
 
 
  PM PM PM PM PM PM PM PM PM PM PM PM                              PM PM PM  
  S  S  S  S  S  S  S  S  S  S  S  S    Q         E   E  E  E   E  E  E  E   
-----------------------------------------------|----------------------------|
-----------------------------------------------|----------------------------|
-----------------------------------------------|----------------------------|
-----------------------------------------------|--0h--1-----0h--1-----------|
-----------------------------------------------|--0h--1-----0h--1-----------|
--0--0--0--0--0--0--0--0--0--0--0--0--(12)S----|-------------------0--0--0--|
 
 
  PM PM PM PM PM PM PM PM                                
  E  E  E  E  E  E  E  E     E   E  E  E   E  E  E   E   
--------------------------|-----------------------------|
--------------------------|-----------------------------|
--------------------------|-----------------------------|
--------------------------|--0h--1-----0h--1-----0h--1--|
--------------------------|--0h--1-----0h--1-----0h--1--|
--0--0--0--0--0--0--0--0--|-----------------------------|
 
 
            PM PM PM PM PM                     PM PM PM  
  E  E   E  E  E  E  E  E     E   E  E  E   E  E  E  E   
---------------------------|----------------------------|
---------------------------|----------------------------|
---------------------------|----------------------------|
-----0h--2-----------------|--0h--1-----0h--1-----------|
-----0h--2-----------------|--0h--1-----0h--1-----------|
------------0--0--0--0--0--|-------------------0--0--0--|
 
 
  PM PM PM PM PM PM PM PM                                
  E  E  E  E  E  E  E  E     E   E  E  E   E  E  E   E   
--------------------------|-----------------------------|
--------------------------|-----------------------------|
--------------------------|-----------------------------|
--------------------------|--0h--1-----0h--1-----0h--1--|
--------------------------|--0h--1-----0h--1-----0h--1--|
--0--0--0--0--0--0--0--0--|-----------------------------|
 
 
            PM PM PM PM PM                     PM PM PM  
  E  E   E  E  E  E  E  E     E   E  E  E   E  E  E  E   
---------------------------|----------------------------|
---------------------------|----------------------------|
---------------------------|----------------------------|
-----0h--2-----------------|--0h--1-----0h--1-----------|
-----0h--2-----------------|--0h--1-----0h--1-----------|
------------0--0--0--0--0--|-------------------0--0--0--|
 
 
  PM PM PM PM PM PM PM PM                                
  E  E  E  E  E  E  E  E     E   E  E  E   E  E  E   E   
--------------------------|-----------------------------|
--------------------------|-----------------------------|
--------------------------|-----------------------------|
--------------------------|--0h--1-----0h--1-----0h--1--|
--------------------------|--0h--1-----0h--1-----0h--1--|
--0--0--0--0--0--0--0--0--|-----------------------------|
 
 
            PM PM PM PM PM                     PM PM PM  
  E  E   E  E  E  E  E  E     E   E  E  E   E  E  E  E   
---------------------------|----------------------------|
---------------------------|----------------------------|
---------------------------|----------------------------|
-----0h--2-----------------|--0h--1-----0h--1-----------|
-----0h--2-----------------|--0h--1-----0h--1-----------|
------------0--0--0--0--0--|-------------------0--0--0--|
 
 
  PM PM PM PM PM PM PM PM                                
  E  E  E  E  E  E  E  E     E   E  E  E   E  E  E   E   
--------------------------|-----------------------------|
--------------------------|-----------------------------|
--------------------------|-----------------------------|
--------------------------|--0h--1-----0h--1-----0h--1--|
--------------------------|--0h--1-----0h--1-----0h--1--|
--0--0--0--0--0--0--0--0--|-----------------------------|
 
 
            PM PM PM PM PM                                                      
  E  E   E  E  E  E  E  E     S E  S Q    E  Q    E     S E  S Q    E  Q    E   
---------------------------|-------------------------|-------------------------|
---------------------------|-------------------------|-------------------------|
---------------------------|-------------------------|-------7-7----7----------|
-----0h--2-----------------|--0-2--2-2----2----------|--0-2--7-7----7----------|
-----0h--2-----------------|--0-2--2-2----2----------|--0-2--5-5----5----------|
------------0--0--0--0--0--|-------0-0----0----------|-------------------------|
 
 
  S E  S H.              S E  S H.              S E  S H.            
----------------------|----------------------|----------------------|
----------------------|----------------------|----------------------|
----------------------|-------7-7------------|----------------------|
--0-2--2-2------------|--0-2--7-7------------|--0-2--3-3------------|
--0-2--2-2------------|--0-2--5-5------------|--0-2--3-3------------|
-------0-0------------|----------------------|-------1-1------------|
 
 
  S E  S Q    S E  S Q       S E  S H.              S E  S H.            
--------------------------|----------------------|----------------------|
--------------------------|----------------------|----------------------|
-------5-5---------4-4----|----------------------|-------7-7------------|
--0-2--5-5----5-4--4-4----|--0-2--2-2------------|--0-2--7-7------------|
--0-2--3-3----3-2--2-2----|--0-2--2-2------------|--0-2--5-5------------|
--------------------------|-------0-0------------|----------------------|
 
 
  S E  S H.              S E  S Q    S E  S Q     
----------------------|--------------------------|
----------------------|--------------------------|
----------------------|-------5-5---------4-4----|
--0-2--3-3------------|--0-2--5-5----5-4--4-4----|
--0-2--3-3------------|--0-2--3-3----3-2--2-2----|
-------1-1------------|--------------------------|
 
 
              PM-----|                            PM-----|                
              PM       PM PM                      PM       PM PM          
   H          S        S  S  S S E.     H         S        S  S  S S E.   
-------------------------------------|-----------------------------------|
-------------------------------------|-----------------------------------|
-------------------------------------|--2~--------2--------2--2------2---|
--(5)~--------5--------5--5--4-L-5---|---------------------------5-L-----|
-------------------------------------|-----------------------------------|
-------------------------------------|-----------------------------------|
 
 
               PM-----|                    
               PM       PM PM              
  E  S S  Q    S        S  S  S S    E  S  
------------------------------------------|
------------------------------------------|
-----4-5~-L----5--------5--5--7-5h-5g7----|
--5-------------------------------------5-|
------------------------------------------|
------------------------------------------|
 
 
              PM-----|                               PM-----|                
              PM       PM PM                         PM       PM PM          
   H          S        S  S  S S E  S     H          S        S  S  S S E.   
--------------------------------------|-------------------------------------|
--------------------------------------|-------------------------------------|
---------------------------------4----|-------------------------------------|
--(5)~--------4--------4--4--5-L----5-|--(5)~--------5--------5--5--4-L-5---|
--------------------------------------|-------------------------------------|
--------------------------------------|-------------------------------------|
 
 
            PM-----|                               PM-----|                    
            PM       PM PM                         PM       PM PM              
  H         S        S  S  S S E.     E  S S  Q    S        S  S  S S    E  S  
-----------------------------------|------------------------------------------|
-----------------------------------|------------------------------------------|
--2~--------2--------2--2------2---|-----4-5~-L----5--------5--5--7-5h-5g7----|
---------------------------5-L-----|--5-------------------------------------5-|
-----------------------------------|------------------------------------------|
-----------------------------------|------------------------------------------|
 
 
              PM-----|                               PM-----|                
              PM       PM PM                         PM       PM PM          
   H          S        S  S  S S E  S     H          S        S  S  S S E.   
--------------------------------------|-------------------------------------|
--------------------------------------|-------------------------------------|
---------------------------------4----|-------------------------------------|
--(5)~--------4--------4--4--5-L----5-|--(5)~--------5--------5--5--4-L-5---|
--------------------------------------|-------------------------------------|
--------------------------------------|-------------------------------------|
 
 
            PM-----|                               PM-----|                    
            PM       PM PM                         PM       PM PM              
  H         S        S  S  S S E.     E  S S  Q    S        S  S  S S    E  S  
-----------------------------------|------------------------------------------|
-----------------------------------|------------------------------------------|
--2~--------2--------2--2------2---|-----4-5~-L----5--------5--5--7-5h-5g7----|
---------------------------5-L-----|--5-------------------------------------5-|
-----------------------------------|------------------------------------------|
-----------------------------------|------------------------------------------|
 
 
              PM------|                                            
              PM        PM PM                              >       
   H          S         S  S  S S E  S    S E  S H         Q       
---------------------------------------|--------------------------|
---------------------------------------|--------------------------|
----------------------------------4----|--------------------------|
--(5)~--------4---------4--4--5-L----5-|--0-2--2-2----------------|
---------------------------------------|--0-2--2-2--------(8)\----|
---------------------------------------|-------0-0--------(6)\----|
 
 
                   >                          >       
  S E  S H         Q         S E  S H         Q       
--------------------------|--------------------------|
--------------------------|--------------------------|
-------7-7----------------|--------------------------|
--0-2--7-7----------------|--0-2--3-3----------------|
--0-2--5-5--------(8)\----|--0-2--3-3--------(8)\----|
------------------(6)\----|-------1-1--------(6)\----|
 
 
                                         PM------|             
                                         PM        PM PM       
                                         |------3-----|        
  S E  S Q    S E  S Q       S E  S Q    E         E  E  Q     
--------------------------|-----------------------------------|
--------------------------|-----------------------------------|
-------5-5---------4-4----|-----------------------------------|
--0-2--5-5----5-4--4-4----|--0-2--2-2----2---------2--2--2----|
--0-2--3-3----3-2--2-2----|--0-2--2-2----2---------2--2--2----|
--------------------------|-------0-2----0---------0--0--0----|
 
 
              PM------|                           PM------|             
              PM        PM PM                     PM        PM PM       
              |------3-----|                      |------3-----|        
  S E  S Q    E         E  E  Q       S E  S Q    E         E  E  Q     
-----------------------------------|-----------------------------------|
-----------------------------------|-----------------------------------|
-------7-7----7---------7--7--7----|-----------------------------------|
--0-2--7-7----7---------7--7--7----|--0-2--3-3----3---------3--3--3----|
--0-2--5-5----5---------5--5--5----|--0-2--3-3----3---------3--3--3----|
-----------------------------------|-------1-1----1---------1--1--1----|
 
 
              PM------|             
              PM        PM PM       
              |------3-----|        
  S E  S Q    E         E  E  Q     
-----------------------------------|
-----------------------------------|
-------5-5----4---------4--4--4----|
--0-2--5-5----4---------4--4--4----|
--0-2--3-3----2---------2--2--2----|
-----------------------------------|
 
 
  PM-------|            PM-------|                                    
  PM         PM PM      PM         PM PM                              
  |------3------|       |------3------|                               
  E          E  E  Q    E          E  E  Q       Q    Q    Q    Q     
----------------------------------------------|----------------------|
----------------------------------------------|----------------------|
--4----------4--4--4----4----------4--4--4----|--4----2--------------|
--4----------4--4--4----4----------4--4--4----|--4----2----5----4----|
--2----------2--2--2----2----------2--2--2----|--2----0----5----4----|
----------------------------------------------|------------3----2----|
 
 
  TP                   TP                   >                     
  W                    W                    Q     Q    H          
-------------------|---------------------|----------------------||
-------------------|---------------------|----------------------||
-------------------|---------------------|----------------------||
--2----------------|--(2)----------------|--2\------------------||
--2----------------|--(2)----------------|--2\------------------||
--0----------------|--(0)----------------|--0\------------------||
 
 
 
 
Duration Legend
---------------
W - whole
H - half
Q - quarter
E - 8th
S - 16th
T - 32nd
X - 64th
. - note dotted
|-n-|  - n-tuplets
 
 
Tablature Legend
----------------
L - tied note
x - dead note
g - grace note
(n) - ghost note
> - accentuded note
NH - natural harmonic
AH - artificial harmonic
TH - tapped harmonic
SH - semi harmonic
PH - pitch harmonic
h - hammer on
p - pull off
b - bend
br - bendRelease
pb - preBend
pbr - preBendRelease
brb - bendReleaseBend
\n/ - tremolo bar dip
\n - tremolo bar dive
-/n - tremolo bar Release up
/n\ - tremolo bar inverted dip
/n - tremolo bar return
-\n - tremolo bar Release down
S - shift slide
s - legato slide
/ -  slide into from below or out of upwards
\ -  slide into from above or out of downwards
~ - vibrato
W - wide vibrato
tr - tril'
TP - tremolo picking
T - tapping
S - slap
P - pop
< - fade in
^ - brush up
v - brush down

comments
print report bad tab
3 comments total.
0 reply
Maitinin wrote on September 11 2008, 10:32 am

well, it's all correct and all, but the layout really has something to say as well!

0 reply
majorpain1023 wrote on September 11 2008, 05:13 pm

Sorry, but I'm only giving you 3 stars just for getting UG to post this... There's a better version. You don't have the 1st solo, you have "L" that are suppose to be a "Tied" note? What's it tied to? and you have a "G" for a "Grace" note which should be slides. But you do have the rhythm correct.

0 reply
unformed68 wrote on January 29 2009, 06:27 pm

no solo? not even the intro? :/

I want to post or [tab]
guest
You may want to rate the tab now too:
select rating
Please do not post tabs as comments. Select "correction" instead!