Oops, an error
Loading. Please wait.

Where The Wild Things Are Tab

ver1
ver1

Solo

Whole song

Interactive

More versions @911Tabs.com
12,789 views 6 this week
8 commentsread comments
1 2 3 4 5
accurate
x 5
Autoscroll
+/-
esc
set tempo
stop
Contributor
Hey! There's an official Ultimate Guitar app which is ideal
for learning songs when you're away from computer. Get the app
WARNING: You are trying to view
                                    content from Ultimate-Guitar.com
                                    in an unauthorized application,
                                    which is prohibited.

                                    Please use an official Ultimate
                                    Guitar Tabs application for iPhone,
                                    iPad or Android to access legitimate
                                    chords, guitar, bass, and drum tabs
                                    from Ultimate-Guitar.com database.

                                    Type "ultimate guitar tabs" in Apple
                                    App Store's or Android Market's
                                    search to find the application.
Transcribed by www.mikesguitarsite.co.uk 

Em           0 2 2 0 0 x 
Cmaj7        x 3 2 0 0 0 
Fb5          x x 3 4 x x 
Cmaj7/E      0 3 2 0 0 0 
G5           3 5 5 x x x 
E5           0 2 x x x x 

Gtr I (Eb Ab Db Gb Bb Eb) - 'James Hetfield - Rhythm clean electric'
Gtr II (Eb Ab Db Gb Bb Eb) - 'Kirk Hammett - Rhythm clean electric'
Gtr III (Eb Ab Db Gb Bb Eb) - 'James Hetfield - Rhythm w/dist'
Gtr IV (Eb Ab Db Gb Bb Eb) - 'Kirk Hammett - Lead / Rhythm w/dist'
Gtr V (Eb Ab Db Gb Bb Eb) - 'Kirk Hammett - Lead w/dist'

Intro
  Q=92
 2/4        4/4
  Gtr II
   H          Q   S S S S +E  E S S S S   +E  E S S S S +H
|----------|----------------------------|------------------------|
|----------|----------------------------|------------------------|
|----------|------4-----4-(4)---4-----3-|-(3)---3-----0-(0)------|
|----------|--------2-------------2-----|---------2--------------|
|----------|----------3-------3-----3---|-----3-----3------------|
|----------|----------------------------|------------------------|
|
| Gtr I
|                                                             ~
|  Q.    E   +Q   S S S S +E  E S S S S   +E  E S S S S +E  E Q
|----------|----------------------------|------------------------|
|-^0----^0-|-(0)------------------------|------------------------|
|-^0----^0-|-(0)--4-----4-(4)---4-----3-|-(3)---3-----0-(0)------|
|-^2----^2-|-(2)----2-------------2-----|---------2--------------|
|-^2----^3-|-(3)------3-------3-----3---|-----3-----3------------|
|-^0-------|----------------------------|-------------------0-1--|
|-Rhy Fig 1                                        end Rhy Fig 1-|

 2/4        4/4
  +H         +Q   S S S S +E  E S S S S   +E  E S S S S +H
|----------|----------------------------|---------------------------|
|----------|----------------------------|---------------------------|
|-(0)------|-(0)--4-----4-(4)---4-----3-|-(3)---3-----0-(0)---------|
|----------|--------2-------------2-----|---------2-----------------|
|----------|----------3-------3-----3---|-----3-----3---------------|
|----------|----------------------------|---------------------------|
|-Rhy Fig 1A                                         end Rhy Fig 1A-|
|
|  Q.    E   +Q   S S S S +E  E S S S S   +E  E S S S S +E  E S S E
|----------|----------------------------|---------------------------|
|-^0----^0-|-(0)------------------------|---------------------------|
|-^0----^0-|-(0)--4-----4-(4)---4-----3-|-(3)---3-----0-(0)---------|
|-^2----^2-|-(2)----2-------------2-----|---------2-----------------|
|-^2----^3-|-(3)------3-------3-----3---|-----3-----3---------3-2-0-|
|-^0-------|----------------------------|-------------------0-------|
                                        |-Rhy Fill 1              --|

Rhy Fig 1 + 1A x2



  Gtr I                Gtr III
                   >     <
                                             PM     PM|
  Q.   E +H        Q   E E +Q   S S S S    e E E. S S S  S  S S S S S
|------0-(0)----|-(0)----0-(0)----------||-----------------------------|
|-0----0-(0)----|-(0)----0-(0)----------||--------------<4>------------|
|-0----0-(0)----|-(0)----0-(0)--4-4-4-4-||-4---4--4-----------4-4-4-4--|
|-2----2-(2)----|-(2)----2-(2)--3-3-3-3-||-3---2--2---------2-3-3-3-3--|
|-2----3-(3)----|-(3)----3-(3)----------||-----------------------------|
|-0-------------|--------0-(0)----------||---0------0-0----------------|
                  +H.           Q
                |-Rhy Fill 2          --|

  Gtr IV
  Q   E. S S S E   Q         W
         | | |
         x x x

  Gtr III
    PM     PM|   PM            PM     PM|
  e E E. S S S S S S S S S   e E E. S S S  S  S S S S S
|--------------------------|----------------------------|
|--------------------------|--------------<4>-----------|
|-4---4--4---------4-4-4-4-|-4---4--4-----------4-4-4-4-|
|-3---2--2---------3-3-3-3-|-3---2--2---------2-3-3-3-3-|
|--------------------------|----------------------------|
|---0------0-0---0---------|---0------0-0---------------|


  Q   E. S  S   S   E    S S S S
         |  |   |        | | | |
         x  x   x        x x x x

    PM
  e E E. S  S   S   S  S S S S S
|---------------------------------|
|----------<4>-<4>-<4>------------|
|-4---4--4---------------4-4-4-4--|
|-3---2--2-------------2-3-3-3-3--|
|---------------------------------|
|---0-----------------------------|


  Gtrs III, IV
    PM     PM----|
  e E E. S S S S S S S S S
|--------------------------|
|--------------------------|
|-4---4--4---------4-4-4-4-|
|-3---2--2---------3-3-3-3-|
|--------------------------|
|---0------0-0-0-0---------|
|-Rhy Fig 2

    PM     PM----|             PM     PM----|
  e E E. S S S S S S S S S   e E E. S S S S S S S S S
|--------------------------|---------------------------|
|--------------------------|---------------------------|
|-4---4--4---------4-4-4-4-|-4---4--4---------4-4-4-4--|
|-3---2--2---------3-3-3-3-|-3---2--2---------3-3-3-3--|
|--------------------------|---------------------------|
|---0------0-0-0-0---------|---0------0-0-0-0----------|


                                                2/4
    PM     PM----|             PM                  PM
  e E E. S S S S S S S S S   e E Q  Q  S S S S   e E Q
|--------------------------|-------------------|--------||
|--------------------------|-------------------|--------||
|-4---4--4-----------------|-------------------|--------||
|-3---2--2---------5-5-5-5-|-5---------5-5-5-5-|-5------||
|------------------5-5-5-5-|-5---2--2--5-5-5-5-|-5---2--||
|---0------0-0-0-0-3-3-3-3-|-3-0-0--0--3-3-3-3-|-3-0-0--||
             end Rhy Fig 2-|-Rhy Fig 2A               --|

   Verses 1 + 2
    $
   4/4
    Gtr IV
        PM--------|       PM|           PM  PM--------|       PM|     PM|
                    |-3-|                               |-3-|
    S S S S S S S S S S S S S E   E     S S S S S S S S S S S S S S S S S   5x
||------------------------------------|-------------------------------------||
||o-----------------------------------|------------------------------------o||
||----------------------------4-------|-------------------------------------||
||----5-----------------------2-------|---5---------------------------------||
||o---5-5-5-5-5-5-5-------------------|---5-5-5-5-5-5-5--------------------o||
||----3-3-3-3-3-3-3-3h5p0-0-0---------|-0-3-3-3-3-3-3-3-3h5p0-0-0-3p0-0-0---||
||-Rhy Fig 3            end Rhy Fig 3-|
|
|   Gtr III
|   PM  PM--------|       PM|     PM----|   PM--------|       PM|     PM|
|                   |-3-|                               |-3-|
|   S S S S S S S S S S S S S S S S S   S S S S S S S S S S S S S S S S S   5x
||------------------------------------|-------------------------------------||
||o-----------------------------------|------------------------------------o||
||------------------------------------|-------------------------------------||
||----5-------------------------------|---5---------------------------------||
||o---5-5-5-5-5-5-5-------------------|---5-5-5-5-5-5-5--------------------o||
||--0-3-3-3-3-3-3-3-3h5p0-0-0-3p0-0-0-|-0-3-3-3-3-3-3-3-3h5p0-0-0-3p0-0-0---||
 |-Rhy Fig 3A          end Rhy Fig 3A-|


   ~~~~~~~~~~~~~~~~~~~~~~~             ~~~~~~
   H        H           H        S S S S +E  E
|--------------------|---------------------------||
|-10--------9--------|---------------------------||
|--------------------|-10--------6s7-7-7-(7)-7---||
|--------------------|---------------------------||
|--------------------|---------------------------||
|--------------------|---------------------------||
|-Fill 1                              end Fill 1-|
|
|                                    PM|     PM|
|  S e S Q  S e S Q     S e S Q  S S S S  e  S S
|--------------------|---------------------------||
|--------------------|---------------------------||
|--7-7-7-7--6-6-6-6--|--3-3-3-3------------------||
|--7-7-7-7--6-6-6-6--|--3-3-3-3-----------5------||
|--5-5-5-5--4-4-4-4--|--1-1-1-1------5-5--5--5-5-||
|--------------------|-----------0h3-3-3--3--3-3-||
|-Rhy Fig 4                        end Rhy Fig 4-|

 Pre-Chorus
w/Fill 1 x1.5
   S e S Q  S e S Q     S e S Q  S S E    S S E    S e S Q  S e S Q
|--------------------|--------------------------|---------------------|
|--------------------|--------------------------|---------------------|
|--7-7-7-7--6-6-6-6--|--3-3-3-3-----------------|--7-7-7-7--6-6-6-6---|
|--7-7-7-7--6-6-6-6--|--3-3-3-3-----------5s7s5-|--7-7-7-7--6-6-6-6---|
|--5-5-5-5--4-4-4-4--|--1-1-1-1-----------------|--5-5-5-5--4-4-4-4---|
|--------------------|-----------0h3-3----3s5s3-|---------------------|


 2/4      4/4
  Gtr III
|-Rhy Fill 3                    end Rhy Fill 3-|
  Em   Cmaj7
  Q.   E   +W                 +W
  |    |    |                  |
  /    /    /                  /

  Gtr II
  Q.   E    E E E E E E E E    E E E E E E E E
|-0------|--0---0---0---0---|--0---0---0---0---||
|-0----1-|----1---1---1---1-|----1---1---1---1-||
|-0------|------------------|------------------||
|-2------|------------------|------------------||
|-3------|------------------|------------------||
|-0------|------------------|------------------||
|-Rhy Fig 3A                    end Rhy Fig 3A-|

 Chorus
  $$
 2/4          4/4
w/Rhy Fig 1
  Gtr II
   E  E E  E   +Q   S S S S +E  E S S S S   +E  E S S S S +H
|--0----0----|----------------------------|------------------------|
|-----1----0-|-(0)------------------------|------------------------|
|------------|------4-----4-(4)---4-----3-|-(3)---3-----0-(0)------|
|------------|--------2-------------2-----|---------2--------------|
|------------|----------3-------3-----3---|-----3-----3------------|
|------------|----------------------------|------------------------|


Rhy Fig 1 + Rhy Fig 1A (w/Rhy Fill 1)

Rhy Fig 1 + 1A


          To Dbl. Coda               To Coda
 2/4      4/4
  Gtr I                        Gtr III
                         >     <
  Q.   E   +W            Q   E E +Q   S S S S
|------0-|-(0)--------|-(0)----0-(0)----------||
|-0----0-|-(0)--------|-(0)----0-(0)----------||
|-0----0-|-(0)--------|-(0)----0-(0)--4-4-4-4-||
|-2----2-|-(2)--------|-(2)----2-(2)--3-3-3-3-||
|-2----3-|-(3)--------|-(3)----3-(3)----------||
|-0------|------------|--------0-(0)----------||
                        +H.           Q


 Rhy Fig 2

 Rhy Fig 2A -> D.S. al Coda


 Guitar Solo
  &
 4/4
w/Rhy Fig 2 (1st bar) x3
  Gtr V
  ~
  Q   S  S  S  S  S  S  S  S  S  S  E     E E S  S  E    S  S  E    S  E    S
|---------------------------------------|-------------------------------------|
|---------------------------------------|-------------------------------------|
|-9---9s10-10-10-10s13-13-13-13s14-14S==|=9-9-9s10-10---10s13-13---13-14---10-|
|---------------------------------------|-------------------------------------|
|-7---7s=8--8--8--8s11-11-11-11s12-12S==|=7-7-7s=8--8----8s11-11---11-12----8-|
|---------------------------------------|-------------------------------------|


  E S S S  S  S  S  S  S  S  S  S  S  S  S
|------------------------------------------|
|------------------------------------------|
|-9-----9s10-10-10-10s13-13-13-13s14-14s17-|
|------------------------------------------|
|-7-7-7-7s=8--8--8--8s11-11-11-11s12-12s15-|
|------------------------------------------|


   S  E    S  S   E  S  S  S  S S  Q
|-------------------------------0--------------|
|---------------------------------15-----------|
|-17s16---17-17--16-17-17-16-16---14b16========|
|----------------------------------------------|
|-15s14---15-15--14-15-15-14-14----------------|
|----------------------------------------------|
|
|       PM              PM------|
|  e    E     E.     S  S  S  S S  S     S S S
|----------------------------------------------|
|----------------------------------------------|
|--4----------4------4-------------------------|
|--3----------2------2-------------5-----5-5-5-|
|----------------------------------5-----5-4-4-|
|-------0---------------0--0--0-0--3-----3-3-3-|
|-Rhy Fill 4

                    ~~~
   +E.    S  E.  S  E. S  E        S  S
|--------15-15--------------------------|
|-(15)---15-15--12-----0----------15----|
|-(14)------14r-12-------14b16=======14-|
|------------------14-------------------|
|---------------------------------------|
|---------------------------------------|
|
|      PM
|   e  E     Q      Q     S     S  S  S
|---------------------------------------|
|---------------------------------------|
|---------------------------------------|
|---5--------5------5-----5-----5--5--5-|
|---4--3-----5------5-----4-----4--4--4-|
|---3--3-----3------3-----3-----3--3--3-|
|-Rhy Fill 4A                         --|

w/Rhy Fill 4A x2
                                          ~~
   +E   S  S  +E   S  S  S  +S   S  S  S  E   S
|-----------------------------------------------|
|------15---------15----------------------------|
|-(14)----14-(14)----14-14r(14)-12------------x-|
|----------------------------------14-12-14---x-|
|-----------------------------------------------|
|-----------------------------------------------|


              ~~~                     ~~
                           |---3---|
   E.      S  E. S  E      S  +S   S  E    S  S
|-----------------------------------------------|
|-15b17----------0-15---------------------------|
|-14b16---12-------14b16==14r(14)p12------12----|
|------------14----------------------14------12-|
|-----------------------------------------------|
|-----------------------------------------------|


   Q        S  E  S  +E   +S   +S   E       +E
|----------15----------------------15------(15)---|
|-15----------15-------------------15------(15)---|
|-14b16==========14-(14)-(14)r(14)-14b17r==(14)---|
|-------------------------------------------------|
|-------------------------------------------------|
|-------------------------------------------------|
|
|        PM
|  e     E  Q         E    S    S   S    S   S  S
|-------------------------------------------------|
|-------------------------------------------------|
|-------------------------------------------------|
|--5--------5---------5----3s===5---5----5---5--5-|
|--4-----3--5---------5----3s===5---5----5---5--5-|
|--3-----3--3---------3----1s===3---3----3---3--3-|
                                   end Rhy Fill 4-|

w/Rhy Fig 2 (1st bar) x2
                     ~~
          |---3---|
   E      S  +S   S  Q   E S  S  E       +S   S
|-----------------------------------------------|
|-----------------------12----------------------|
|-14b16==14r(14)p12-----12s7s12-14b16r==(14)p13-|
|-------------------14--------------------------|
|-----------------------------------------------|
|-----------------------------------------------|


                     ~~
          |---3---|
   E      S  +S   S  Q   E  +E   E    E
|-----------------------------------------|
|-----------------------12-(12)\----------|
|-14b16==14r(14)p12-----12-(12)\-7s==15---|
|-------------------14--------------------|
|-----------------------------------------|
|-----------------------------------------|


                                      2/4
      ~~~      ~~~    ~~~
   S  E.    S  E.  S  E.  S  S  S  S    S  S  S  S  S  S  E
|------------------------------------|-------15--------------|
|-15-------15-----15-----15----------|-15h17----17-15----15\-|
|----16-------16-----16-----16-16-16-|----------------16-----|
|------------------------------------|-----------------------|
|------------------------------------|-----------------------|
|------------------------------------|-----------------------|
|
|        PM
|  e     E  Q      Q      S  S  S  S    E     E     E     E
|------------------------------------|-----------------------|
|------------------------------------|-----------------------|
|------------------------------------|-----------------------|
|--5----------------------5--5--5--5-|--5-----------2--------|
|--5--------2------2------5--5--5--5-|--5-----------2--------|
|--3-----0--0------0------3--3--3--3-|--3-----0-----0-----x/-|


w/Rhy Fig 4 x1.5
 4/4
           ~~~~~~~~~~~~                   ~~~~~
  S  E     S      +E   E  E.      S      +E   E
|---10----10-----(10)-----9-------9------(9)----|
|---13b15-13b15==(13)r---12b14---12b14==(12)r---|
|-----------------------------------------------|
|-----------------------------------------------|
|-----------------------------------------------|
|-----------------------------------------------|

                      ~~~~                  ~~~~~~~
   E       S  S      +E   +E     E.         S  +S   S  E
|----------------------------------------------------------|
|-11---------11-----(11)-(11)\--12---------12-(12)-12------|
|-13b15---13-13b15==(13)-(13)r\-14b16======14-(14)-14r-----|
|----------------------------------------------------------|
|----------------------------------------------------------|
|----------------------------------------------------------|


                              ~~~~~~
   S     e  S S  E  S  S S  S S +E  E
|-------10-10---10-10-10s9------------|
|-13b15--------------------10---------|
|-----------------------------9-(9)---|
|-------------------------------------|
|-------------------------------------|
|-------------------------------------|


   S  S  S  S      +S    E    S  Q      E  +E
|-----------------------------------------------|
|-------------------------------12--------------|
|-------------------------------12--------------|
|----------------------------14--------14-(14)\-|
|----10-12-12b13==(12)r-12----------------------|
|-12--------------------------------------------|
|
|  S  e     S       E      E     S S E  E   E
|-----------------------------------------------|
|-----------------------------------------------|
|--3--3-----3-------3---------------------------|
|--3--3-----3-------3------------5s7s5--5-------|
|--1--1-----1-------1---------------------------|
|--------------------------0-----3s5s3--3-------|


w/Rhy Fig 4 (1st bar only)
                              ~     PM|
   S     e  S S  E  S  S S  S S +E  S S
|-------10-10---10-10-10s9----------0-0-|
|-13b15--------------------10-----------|
|-----------------------------9-(9)-----|
|---------------------------------------|
|---------------------------------------|
|---------------------------------------|



 2/4              4/4
   Q.      E        +W            +W
|-12------12-----|-(12)--------|-(12)----||
|-15b17---15b17==|=(15)--------|-(15)----||
|----------------|-------------|---------||
|----------------|-------------|---------||
|----------------|-------------|---------||
|----------------|-------------|---------||
|
|                                  >
|  Q.      E        +W            +W
|----------0-----|--(0)--------|--(0)----||
|--0-------0-----|--(0)--------|--(0)----||
|--0-------0-----|--(0)--------|--(0)----||
|--2-------2-----|--(2)--------|--(2)----||
|--2-------3-----|--(3)--------|--(3)----||
|--0-------------|-------------|---------||



   +Q    Q  H               W
|-(12)--------------------|----------------------|
|-(15)r-------------------|----------------------|
|-------------------------|----------------------|
|-------------------------|----------------------|
|-------------------------|----------------------|
|-------------------------|----------------------|
|
| Gtr IV
|   H       E S S S S S S   e E Q  E S S S S S S
|-------------------------|----------------------|
|-------------------------|----------------------|
|-------------x-x-4-4-4-4-|-4--------x-x-4-4-4-4-|
|-------------x-x-3-3-3-3-|-3--------x-x-3-3-3-3-|
|-------------------------|----------------------|
|-------------------------|----------------------|
                          |-Rhy Fig 5          --|

w/Rhy Fig 5 x2
 Gtr III
  Q   E. S +E  E   Q         Q   E. S +E  E   Q
|--------------------------|--------------------------||
|--------------------------|--------------------------||
|--------4-(4)-------------|--------4-(4)-------------||
|--------2-(2)-------------|--------2-(2)-------------||
|--------------------------|--------------------------||
|-----0--------------------|-----0--------------------||
|-Rhy Fig 5A             --|


   Bridge
 Rhy Fig 5 + 5A x12



  Q   E. S +E  E   S S S S   e E S S S S +S  E S E E
|--------------------------|---------------------------||
|--------------------------|---------------------------||
|--------4-(4)-----4-4-4-4-|-4---4-4-4-4-(4)-4-4-4-----||
|--------2-(2)-----3-3-3-3-|-3---2-2-2-2-(2)-2-2-2-----||
|--------------------------|-----------------------9\--||
|-----0--------------------|---0-----------------------||
|
| e E Q     E  S S S S S S   e E Q        H
|--------------------------|---------------------------||
|--------------------------|---------------------------||
|-4------------x-x-4-4-4-4-|-4-------------------------||
|-3------------x-x-3-3-3-3-|-3-------------------------||
|--------------------------|---------------------------||
|--------------------------|---------------------------||


   Pre Chorus
Rhy Fig 4 + Fill 1 both x1.5


Rhy Fig 3A + Fill 3 ->   D.S.S. al Dbl. Coda


                          Outro
w/Rhy Fill 2             |-w/Rhy Fig 2 (1st bar) x5
  &&
  Gtr I                 Gtr V
   H.           Q          Q   S  S  S  S  S  S  S  S  S  S  e
|-(0)-------------------||---------------------------------------|
|-(0)-------------------||---------------------------------------|
|-(0)-------------------||-9---9s10-10-10-10s13-13-13-13s14-14---|
|-(2)-------------------||---------------------------------------|
|-(3)-------------------||-7---7s=8--8--8--8s11-11-11-11s12-12---|
|-----------------------||---------------------------------------|



  E S S S  S  S  S  S  S  S  S  S  S  S  S
|------------------------------------------|
|------------------------------------------|
|-9-9-9-9s10-10-10-10s13-13-13-13s14-14-14-|
|------------------------------------------|
|-7-7-7-7s=8--8--8--8s11-11-11-11s12-12-12-|
|------------------------------------------|


                           |-----------6-----------|
   S  S  S  S  S  S  S  S  S     +S     S  S  S    S  S  S  S  S
|----------------------------------------------------------------|
|----------------------------------------------------------12h15-|
|-14s16-16-16-------12-14-14b16r(14)p==12-14p12------12h14-------|
|-------------12h14-------------------------------14-------------|
|-12s14-14-14----------------------------------------------------|
|----------------------------------------------------------------|


   T  T  T  T  S  S  S   S  S  S  S      +S   E    E       +S   S
|-----------------------------------------------------------------|
|-12h15p12----12----------------------------------15------(15)----|
|----------14----14-12-----12-14-14pb16r(14)p12---14b16r==(14)p12-|
|-----------------------14----------------------------------------|
|-----------------------------------------------------------------|
|-----------------------------------------------------------------|


                     ~~~
          |---3---|
   E      S  +S   S  Q     E    +E      E       +S   S
|------------------------------------------------------|
|-------------------------12---(12)\---15------(15)----|
|-14b16==14r(14)-12-------12---(12)\---14b16r==(14)p12-|
|-------------------14---------------------------------|
|------------------------------------------------------|
|------------------------------------------------------|


w/Rhy Fig 2 (1st bar) x2
                     ~~~
          |---3---|
   E      S  +S   S  Q     E    +E       E     S  S
|---------------------------------------------------|
|-------------------------12---(12)\----------------|
|-14b16==14r(14)-12-------12---(12)\-------------12-|
|-------------------14-----------------/14----14----|
|---------------------------------------------------|
|---------------------------------------------------|
|
|         PM               PM--------|
|  E      E          E. S  S S   S   S   S  S  S  S
|---------------------------------------------------|
|---------------------------------------------------|
|--4-----------------4--4----------------9s10-10-10-|
|--3-----------------2--2---------------------------|
|----------------------------------------7s=8--8--8-|
|---------0----------------0-0---0---0--------------|



   T  T  T  T  T  T  T  T  T   T  T  T  T  T  T   T  T  T  T   T  T  S    T  T  S     T  T  S     T
|-----------------------------------------------------------------------------------------------------|
|-----------------------------------------------------------------------------------------------------|
|-14p12----12-14p12-14p12-----12-14p12-14p12s11-/12h14p12s11-/12h14p12---12h14p12----12h14p12----12h==|
|-------14----------------14--------------------------------------------------------------------------|
|-----------------------------------------------------------------------------------------------------|
|-----------------------------------------------------------------------------------------------------|
|
|                                                    PM----------------|
|  S     S     E           Q                         S     S      S    S     S     S     S     S
|-----------------------------------------------------------------------------------------------------|
|-----------------------------------------------------------------------------------------------------|
|-10s===12----12S==========9-------------------------------------------------9s===10----10s===12------|
|-----------------------------------------------------------------------------------------------------|
|--8s===10----10S==========7-------------------------------------------------7s====8-----8s===10------|
|----------------------------------------------------0-----0------0----0------------------------------|


w/Rhy Fig 2 last bar
                  |----3-----|
   T  T  S  S  S  S     +S   S  S  S  +E     E    E       +S   S
|----------------------------------------------------------------|
|------------------------------------------------15------(15)----|
|-14p12----12-14-14b16r(14)p12----12-(12)\-------14b16r==(14)p12-|
|-------14---------------------14--------------------------------|
|----------------------------------------------------------------|
|----------------------------------------------------------------|
|
|                                      PM------|
|  S     E     S  Q                    S   S S S  S    S   S   S
|----------------------------------------------------------------|
|----------------------------------------------------------------|
|-10-----9-----7--9----------------------------------------------|
|-------------------------------------------------5----5---5---5-|
|--8-----7-----5--7-------------------------------5----5---5---5-|
|--------------------------------------0---0-0-0--3----3---3---3-|


w/Rhy Fig 2A (1st bar) x3
                     ~~
          |---3---|
   E      S  +S   S  Q   E  +E     E    S  S
|--------------------------------------------|
|-----------------------12-(12)\-------------|
|-14b16==14r(14)p12-----12-(12)\-/16---16-16-|
|-------------------14-----------------------|
|--------------------------------------------|
|--------------------------------------------|


                                             ~~~~~~~
               |---------6----------|
   S  S  S  S  S      +S   S  S  S  S  S  S  E  +S   e    S
|-----------------------------------------------------------|
|-15----15-17-17pb19r(17)p15-17p15----15h17-15-(15)-12---12-|
|----16----------------------------16---------------12---12-|
|-----------------------------------------------------------|
|-----------------------------------------------------------|
|-----------------------------------------------------------|


  S  e    S S  e  S  S  S  S  S  S  e    S
|------------------------------------------|
|---12---12---12-------------------12---12-|
|---12---12---12-12-14p12----------12---12-|
|-------------------------14p12-14---------|
|------------------------------------------|
|------------------------------------------|


 2/4                                      4/4
  Gtrs III, IV
  G5   E    E5        Em              Cmaj7/E
  e    E    Q          Q.              E    +W
  |    |    |          |               |     |
  /    o    /          /               /     /

  Gtr V
  S  e    S S  E  S    E   +E       E  E    +Q    E.  S  +Q    E.  S
|-------------------|--------------------|---------------------------:
|---12---12---12----|-12--(12)b12.5---12-|-(12)--12--12-(12)--12--11-:
|---12---12---12----|-12--(12)b12.5-0-12-|-(12)----------------------:
|----------------14-|--------------------|---------------------------:
|-------------------|--------------------|---------------------------:
|-------------------|--------------------|---------------------------:


   +W                W
    |
    /

   +Q    Q  Q  Q    +W
|-----------------:--------*|
|-(11)--11s=8--8--:-(8)----*|
|-----------------:--------*|
|-----------------:--------*|
|-----------------:--------*|
|-----------------:--------*|
comments
print report bad tab
8 comments total. Showing first comments.
+1 reply
Metal_Militian wrote on April 26 2008, 01:09 pm

Great tab, thanks for posting it, 5 stars.

+1 reply
frantic_saint wrote on January 26 2009, 10:18 am

yay! s'good. We should all go and catch thumbtacks with our bare eyes.

+1 reply
Dude!"#ยค%&/() wrote on March 9 2009, 12:06 pm

awesome tab man, 100%

I want to post or [tab]
guest
You may want to rate the tab now too:
select rating
Please do not post tabs as comments. Select "correction" instead!