Oops, an error
Loading. Please wait.

Married Life Up Theme Tab

ver2
ver2

Intro

Whole song

Interactive

More versions @911Tabs.com
19,998 views 27 this week
no commentswrite comment
1 2 3 4 5
worth learning
x 2
Autoscroll
+/-
esc
set tempo
stop
Contributor
Difficulty
advanced
Hey! There's an official Ultimate Guitar app which is ideal
for learning songs when you're away from computer. Get the app
WARNING: You are trying to view
                                    content from Ultimate-Guitar.com
                                    in an unauthorized application,
                                    which is prohibited.

                                    Please use an official Ultimate
                                    Guitar Tabs application for iPhone,
                                    iPad or Android to access legitimate
                                    chords, guitar, bass, and drum tabs
                                    from Ultimate-Guitar.com database.

                                    Type "ultimate guitar tabs" in Apple
                                    App Store's or Android Market's
                                    search to find the application.
---TAB generated by LickByNeck software-- 

!!Download this FREE software and hundreds of SOLO guitar (Chord Melody Guitar) arrangements
at www.LickByNeck.com !!


Up Theme Song-Married Life-Pixar Disney-Michael Giacchino - BASIC ARRANGEMENT 
played in the key of F

E| 1----------------------| 0-- 0-- 0---- 0--------|
B| 1-------------- 1------| 1-- 1-- 1---- 1--------|
G|------------ 2----------| 2-- 2-- 2------ 2------|
D|-------- 3--------------|------------------------|
A|------------------------| 3----------------------|
E| 1----------------------|------------------------|

E|------------------------| 0-- 0-- 0---- 0--------|
B| 3----------------------| 1-- 1-- 1---- 1--------|
G| 2------------ 2--------| 2-- 2-- 2------ 2------|
D|-------- 3------ 3------|------------------------|
A|------------------------| 3----------------------|
E| 1----------------------|------------------------|

E| 1----------------------| 0-- 0-- 0---- 0--------|
B| 1-------------- 1------| 1-- 1-- 1---- 1--------|
G|------------ 2----------| 2-- 2-- 2------ 2------|
D|-------- 3--------------|------------------------|
A|------------------------| 3----------------------|
E| 1----------------------|------------------------|

E|------------------------|---------------- 5------|
B| 3----------------------| 5---------- 6------ 6--|
G| 2------------ 2--------| 5----------------------|
D|-------- 3------ 3------|-------- 7--------------|
A|------------------------|------------------------|
E| 1----------------------|-- 8--------------------|

E|------------------------|-------------- 5--------|
B| 5----------------------|---------- 6------ 5----|
G| 5------------ 5--------|------ 5----------------|
D|-------- 7------ 7------|------ 7----------------|
A| 8----------------------|------------------------|
E|------------------------| 8----------------------|

E|---------------- 1------|------------------------|
B| 3---------- 3------ 3--| 1-------------- 0------|
G| 2----------------------| 2------------ 2--------|
D| 3------ 3--------------|-------- 3--------------|
A|------------------------| 3----------------------|
E| 1----------------------|------------------------|

E| 5------ 3------------ 5|------ 3----------------|
B| 3------ 3---------- 3 3|------ 3------------ 6 3|
G|-------- 4------------ 4|------ 4-------------- 4|
D|-------------- 3--------|-------------- 3--------|
A|------------------------| 5----------------------|
E| 3----------------------|------------------------|

E|------------------------|-------------- 3--------|
B|------------------------|------------ 6---- 6----|
G|------------ 4----------|------------------------|
D|-------- 3------ 3------|-------- 3--------------|
A|------------------------| 5----------------------|
E| 3----------------------|------------------------|

E| 0----------------------|------------ 0-- 3-- 0--|
B| 1----------------------|------------------------|
G| 3------------ 3--------|------------------------|
D|-------- 2------ 2------|-------- 2--------------|
A| 3----------------------|------------------------|
E|------------------------| 3----------------------|

E|-------------- 0--------|------------------------|
B| 1---------- 1------ 1--|------------------------|
G| 3----------------------| 3-------------- 3------|
D|-------- 2--------------|-------- 2--------------|
A| 3----------------------|------------------------|
E|------------------------| 3----------------------|

E|------------------------|---------------- 0------|
B|------------------------| 1---------- 3-------- 3|
G|-------- 2---- 3--------|-------- 2--------------|
D|------ 3-------- 3------|------------------------|
A|---------------------- 3|------------------------|
E| 1----------------------|------------------------|

E|------------------------|---------------- 5------|
B|---------------- 3------| 5---------- 6------ 6--|
G|------------ 3----------|-------- 5--------------|
D|-------- 3--------------|------------------------|
A|------------------------| 3----------------------|
E| 3----------------------|------------------------|

E|------------------------|-------------- 5--------|
B| 5----------------------|---------- 6------ 5----|
G| 5------------ 5--------|------ 5----------------|
D|-------- 7------ 7------|------ 7----------------|
A| 8----------------------|------------------------|
E|------------------------| 8----------------------|

E|-------------------- 8--|12--------------10------|
B|----------------10------|------------10----------|
G| 7----------10----------|-------- 9--------------|
D|-------- 7--------------|------------------------|
A| 8----------------------|------------------------|
E|------------------------| 8----------------------|

E|13------12--------10----|--------------------10--|
B|12------12--------------|10------12--------------|
G|10------10----10--------|10------10--------------|
D|------------------------|12--------------12------|
A|10----------------------|------------------------|
E|------------------------|10----------------------|

E|13----------------------|---------------- 3------|
B|12------12------12------|---------- 6-------- 6--|
G|10------10------10------|------ 4----------------|
D|------------------------|------ 3----------------|
A|10----------------------| 5----------------------|
E|------------------------|------------------------|

E| 0----------------------|------------ 0-- 3-- 0--|
B| 1----------------------|------------------------|
G| 3------------ 3--------|------------------------|
D|-------- 2------ 2------|-------- 2--------------|
A| 3----------------------|------------------------|
E|------------------------| 3----------------------|

E|-------------- 0--------|------------------------|
B| 1---------- 1------ 1--|------------------------|
G| 3----------------------| 3-------------- 3------|
D|-------- 2--------------|-------- 2--------------|
A| 3----------------------|------------------------|
E|------------------------| 3----------------------|

E|------------------------|---------------- 0------|
B|------------------------| 1---------- 3----------|
G|-------- 2---- 3--------|-------- 2--------------|
D|------ 3-------- 3------|------------------------|
A|---------------------- 3|------------------------|
E| 1----------------------|------------------------|

E|------------------------|------ 3------ 5-- 6----|
B|---------------- 3------| 5 6------ 6------------|
G|-------- 5--------------|------------------------|
D|-------- 5--------------|------------------------|
A| 3----------------------|------------------------|
E|------------------------|------------------------|

E| 8----------------------|------------------------|
B|11--------------11--10--| 8------------------10--|
G| 9---------- 9----------| 9-------------- 9------|
D|-------- 8--------------| 8------ 8--------------|
A|------------------------|--10--------------------|
E| 8----------------------|------------------------|

E|------------------------|10----------------------|
B|11------10---------- 8--| 8------10------ 8------|
G| 9------ 9--------------| 9------ 9------ 9------|
D| 8------ 8------ 8------|-------- 8------ 8------|
A|------------------------|10----------------------|
E| 8----------------------|------------------------|

E|------------------------|------------------------|
B|10----------------10 8 6|------------------ 6----|
G|10----------10-------- 8|-------------- 8--------|
D|--------10--------------|------ 7----------------|
A| 8----------------------|------------------------|
E|------------------------| 8----------------------|

E|------------------------|------------------------|
B|10---- 8--------------10|-------- 7--------------|
G|10----10----------10----| 7------------ 7--------|
D|10------------10--------|------------------ 8----|
A| 8----------------------| 9----------------------|
E|------------------------|------------------------|

E|-------- 5---------- 5--| 3-------------------- 3|
B|-------- 3--------------| 3---- 3------ 6------ 3|
G| 4------ 4--------------| 4---- 4------ 4--------|
D| 3-------------- 3------|------ 3------ 3--------|
A|------------------------| 5----------------------|
E| 3----------------------|------------------------|

E|------------------------|------------------------|
B|---------------- 6-- 5--| 3----------------------|
G| 4------------ 4--------| 4------------ 4--------|
D|-------- 3--------------|-------- 3--------------|
A|------------------------| 5----------------------|
E| 3----------------------|------------------------|

E|-------- 3--------------|------------------------|
B| 5------------------ 4--| 5----------------------|
G| 3----------------------|-------- 3------ 4------|
D| 5----------------------|---------------------- 2|
A| 3----------------------|---------------------- 3|
E|------------------------|------------------------|

E|------------------------|---------------- 5------|
B|-- 1--------------------|------------ 6------ 6--|
G| 1----------------------|------------------------|
D|------------------------|------------------------|
A|------------------------|------------------------|
E|------------------------|------------------------|

E|------------------------|-------------- 5--------|
B| 5----------------------|---------- 6------ 5----|
G| 5------------ 5--------|------ 5----------------|
D|-------- 7------ 7------|------ 7----------------|
A| 8----------------------|------------------------|
E|------------------------| 8----------------------|

E|-------------------- 8--|12--------------10------|
B|----------------10------|------------10----------|
G| 7----------10----------|-------- 9--------------|
D|-------- 7--------------|------------------------|
A| 8----------------------|------------------------|
E|------------------------| 8----------------------|

E|13------12--------10----|--------------------10--|
B|12------12--------------|10------12--------------|
G|10------10----10--------|10------10--------------|
D|------------------------|12--------------12------|
A|10----------------------|------------------------|
E|------------------------|10----------------------|

E|13----------------------|---------------- 3------|
B|12------12------12------|---------- 6-------- 6--|
G|10------10------10------|------ 4----------------|
D|------------------------|------ 3----------------|
A|10----------------------| 5----------------------|
E|------------------------|------------------------|

E| 0----------------------|------------ 0-- 3-- 0--|
B| 1----------------------|------------------------|
G| 3------------ 3--------|------------------------|
D|-------- 2------ 2------|-------- 2--------------|
A| 3----------------------|------------------------|
E|------------------------| 3----------------------|

E|-------------- 0--------|------------------------|
B| 1---------- 1------ 1--|------------------------|
G| 3----------------------| 3-------------- 3------|
D|-------- 2--------------|-------- 2--------------|
A| 3----------------------|------------------------|
E|------------------------| 3----------------------|

E|------------------------|---------------- 0------|
B|------------------------| 1---------- 3----------|
G|-------- 2---- 3--------|-------- 2--------------|
D|------ 3-------- 3------|------------------------|
A|---------------------- 3|------------------------|
E| 1----------------------|------------------------|

E|------------------------|---------------- 5------|
B|------ 1------ 3--------| 5---------- 6------ 6--|
G|------ 0----------------| 3----------------------|
D|------ 2----------------|------ 5----------------|
A| 3----------------------| 3----------------------|
E|------------------------|------------------------|

E|------------------------|-------------- 5--------|
B| 5----------------------|---------- 6------ 5----|
G| 5------------ 5--------|------ 5----------------|
D|-------- 7------ 7------|------ 7----------------|
A| 8----------------------|------------------------|
E|------------------------| 8----------------------|

E|---------------- 1------|------------------------|
B| 3---------- 3------ 3--| 1-------------- 0------|
G| 2----------------------| 2------------ 2--------|
D| 3------ 3--------------|-------- 3--------------|
A|------------------------| 3----------------------|
E| 1----------------------|------------------------|

E| 5------ 3------------ 5|------ 3----------------|
B| 3------ 3---------- 3 3|------ 3------------ 6--|
G|-------- 4------------ 4|------ 4----------------|
D|-------------- 3--------|-------------- 3--------|
A|------------------------| 5----------------------|
E| 3----------------------|---------------------- 3|

E|------------------------|------------------------|
B| 3----------------------|------------------------|
G| 4---------------- 4----|---------------- 4------|
D| 3------ 3--------------|---------- 3------------|
A|------------------------|---- 5------------------|
E|------------------------|------------------------|

E|------------------------|------------------------|
B| 3----------------------|------------------------|
G|------ 4----------------|------------------------|
D|---------------- 3------|------------------------|
A|------------------------|------------------------|
E|------------------------|------------------------|

E|------------------------|------------------------|
B|------------------------|------------------------|
G|------------------------|---------------- 0------|
D|------------------------|---------- 2------------|
A|------------------------|---- 3------------------|
E|------------------------|------------------------|

E|------------------------|------------------------|
B| 1----------------------|------------------------|
G|------------------------|------------------------|
D|------------------------|------------------------|
A|------------------------|------------------------|
E|------------------------|------------------------|

E|------------------------|------------------------|
B|-------------------- 0--|------------------------|
G|------------ 0----------|------------------------|
D|------ 0----------------|------------------------|
A|------------------------|------------------------|
E| 3----------------------|------------------------|

E|------------------------|------------------------|
B|------------------------|------------ 3----------|
G|------------------------|---- 5------------------|
D|-------------------- 4--|------------------------|
A|------------ 5----------|------------------------|
E|------------------------|------------------------|

E|------------------------|------------------------|
B|------------------------|------------------------|
G|------------------------|------------------------|
D|------------------------|------------------------|
A|------------------------|------------------------|
E|------------------------|------------------------|

E|---------------------- 7|------------------------|
B|---------------- 8------|---- 8------ 7----------|
G|------------------------|------------ 7----------|
D|------------------------|---------- 9-------- 9--|
A|------------------------|----------10------------|
E|------------------------|------------------------|

E|------------------------|-------------------- 7--|
B|------------ 7----------|---------------- 8------|
G|---- 7---------------- 7|------------------------|
D|------------------------|------------------------|
A|------------------------|------------------------|
E|------------------------|------------------------|

E|---------- 0------------|-- 0---- 3---- 0--------|
B|-- 7------ 0---------- 0|------------------ 3----|
G|------------------ 0----|------------------------|
D|------------------------|------------------------|
A|------------------------|------------------------|
E|---------- 3------------|-------------------- 3--|

E|------------------------|-------------------- 7--|
B|---------------- 3------|-- 2---------------- 5--|
G|---------- 0------------|-------------------- 6--|
D|-- 0--------------------|------------------------|
A|------------------------|------------------ 0----|
E|------------------------|------------------------|

E|------ 5----------------|---- 7-------- 5--------|
B|------ 5-------------- 5|------------------------|
G|---------------- 6------|------------------------|
D|---------- 5------------|---------------------- 5|
A|------------------------|------------------------|
E|------------------------|------------------------|

E|------------------------|------------------------|
B|------------ 8----------|-------- 5--------------|
G|---- 6------------------|------ 6----------------|
D|------------------------|------ 5-------- 5------|
A|------------------------|---- 0------------------|
E|------------------------|------------------------|

E|------------------------|------------------------|
B|---------- 5------------|------------------ 8----|
G| 6----------------------|------------------------|
D|------------------------|------------------------|
A|------------------------|------------------------|
E|------------------------|------------------------|

E|-- 5--------------------|------------------------|
B|---------- 8------ 7----|-------------------- 7--|
G|------------------------|---------- 5------------|
D|------------------------|-- 7--------------------|
A|------------------ 5----|------------------------|
E|------------------------|------------------------|

E|-------------------- 5--|------------------------|
B|-------------- 7--------|-- 7--------------------|
G|------------------------|---------- 7------------|
D|------------------------|---------- 7------ 7----|
A|------------------------|------------------------|
E|------------------------|-------- 8--------------|

E|------------------------|------------------------|
B|-------------- 7--------|------------------------|
G|-- 7---- 7------------ 7|------ 5----------------|
D|------------------------|------ 4-------- 4------|
A|------------------------|------------------------|
E|------------------------|---- 5------------------|

E|------------------------|------------------------|
B|------------------------|------------------------|
G|------------------------|------------------------|
D|------------------------|------------------------|
A|------------------------|------------------------|
E|------------------------|------------------------|

E|------------------------|------------------------|
B|---- 0---------- 0------|---- 1---------- 3------|
G|---- 0---------- 0------|---- 0---------- 0------|
D|-- 2------------ 2------|---- 2---------- 2------|
A| 3----------------------|------------------------|
E|------------------------|------------------------|

E|---- 0------------ 2----|------------------------|
B|------------------------|------------ 3----------|
G|------------------------|------------ 2----------|
D|------------------------|------------ 4----------|
A|------------------------|---------- 3------------|
E|------------------------|------------------------|

E|---------------- 0------|------ 2----------------|
B|-- 3--------------------|------------------------|
G|------------------------|------------------------|
D|------------------------|------------------------|
A|------------------------|------------------------|
E|------------------------|------------------------|

E| 3-------------- 5------|------------------------|
B|------------------------|------------------------|
G|------------------------|------------------------|
D|------------------------|------------------------|
A|------------------------|------------------------|
E|------------------------|------------------------|

E|---------- 3------------|------------------------|
B|---------- 3------------|------------------------|
G|------ 4----------------|------------------------|
D|------------------------|------------------------|
A|------------------------|------------------------|
E|---- 3------------------|------------------------|

E|---------------- 2------|------------------------|
B|---------------- 3------|------------------------|
G|---------------- 4------|------------------------|
D|------------------------|------------------------|
A|------------------------|------------------------|
E|------------ 3----------|------------------------|

E|------------------------|-- 3--------------------|
B|------------------------|-- 3--------------------|
G|------------------------| 4----------------------|
D|------------------------|------------------------|
A|------------------------|------------------------|
E|---------------------- 3|------------------------|

E|------------------------|---------- 2------------|
B|------------------------|---------- 3------------|
G|------------------------|-------- 4--------------|
D|------------------------|------------------------|
A|------------------------|------------------------|
E|------------------------|------ 3----------------|

E|------------------------|------------------------|
B|------------------------|------------------------|
G|------------------------|------------------------|
D|------------------------|------------------------|
A|------------------------|------------------------|
E|------------------------|------------------------|

E|------------------------|------------------------|
B|------------ 3----------|------------------------|
G|---------- 4------------|------------------------|
D|-------- 5--------------|------------------------|
A|------------------------|------------------------|
E|------ 3----------------|------------------------|

E|------------------------|------------------------|
B|------------------------|------------------------|
G|------------------------|------------------------|
D|------------------------|------------------------|
A|------------------------|------------------------|
E|------------------------|------------------------|

E|------------------------|------------------------|
B|------------------------|------------------------|
G|------------------------|------------------------|
D|------------------------|------------------------|
A|------------------------|------------------------|
E|------------------------|------------------------|

If you like this LickByNeck work, feel free to support LickByNeck by:
1. Give a Donation at www.LickByNeck.com,
  
comments
We did not receive enough feedback on this tab! Please rate:
print report bad tab
1 2 3 4 5
I want to post or [tab]
guest
You may want to rate the tab now too:
select rating
Please do not post tabs as comments. Select "correction" instead!