Oops, an error
Loading. Please wait.

Layover Tab

ver1
ver1

Whole song

Interactive

More versions @911Tabs.com
2,251 views 27 this week
no commentswrite comment
1 2 3 4 5
please rate
Autoscroll
+/-
esc
set tempo
stop
Contributor
Difficulty
Tuning
advanced
C F A# D# G C
Hey! There's an official Ultimate Guitar app which is ideal
for learning songs when you're away from computer. Get the app
WARNING: You are trying to view
                                    content from Ultimate-Guitar.com
                                    in an unauthorized application,
                                    which is prohibited.

                                    Please use an official Ultimate
                                    Guitar Tabs application for iPhone,
                                    iPad or Android to access legitimate
                                    chords, guitar, bass, and drum tabs
                                    from Ultimate-Guitar.com database.

                                    Type "ultimate guitar tabs" in Apple
                                    App Store's or Android Market's
                                    search to find the application.
Layover - Michael Hedges

tabbed by Alex "Zandy" Wight

(note the alternate tuning)
       NH            NH                                               
       H        E    Q    E     W                   W                 
E||--------------------------|-------------------|-------------------|
C||--------------------------|-------------------|-------------------|
G||--------------------------|-------------------|-------------------|
C||--------------------------|-------------------|-------------------|
A||----------------<>7----L--|--L----------------|--L----------------|
D||--<>5--------L---------L--|--L----------------|--L----------------|


                  NH             NH         NH                        
  Q    H          Q       Q      H          Q       W                 
-----------------------|-------------------------|-------------------|
-----------------------|-------------------------|-------------------|
-----------------------|-------------------------|-------------------|
-----------------------|------------------<>7----|--L----------------|
--L----L----------L----|-------<>7----------L----|--L----------------|
--L----L--------<>5----|--L------L----------L----|--L----------------|


                           NH       NH       NH           NH       NH      
  W                   E    Q.       Q.       E     Q      Q.       Q.      
-------------------|----------------------------|-------------------------|
-------------------|----------------------------|-------------------------|
-------------------|----------------------------|-------------------------|
--L----------------|--L-------------L------<>7--|--L------L------<>5------|
--L----------------|--L----L------<>7-----------|--L----<>5---------------|
--L----------------|--L--<>5--------------------|--L------L---------------|


    NH        NH         NH              NH                               
    Q.        Q.     S   E.     Q.       H        E     W                 
-----------<>12------L-------|--L------<>7--------L--|--L----------------|
-----------------------<>7---|--L--------------------|-------------------|
--<>7----------------L-------|--L--------------------|-------------------|
---------------------L-------|--L--------------------|-------------------|
---------------------L-------|--L--------------------|-------------------|
---------------------L-------|--L--------3--------L--|--L----------------|


  W                   H.           Q         E  E  E  E   E    E   Q      
--L----------------|--L------------8----||------L--------10s--12---------|
-------------------|--------------------||------------0------------------|
-------------------|--------------------||*-----0------------------------|
-------------------|--------------------||*--------9--------------11s----|
-------------------|--------------------||---0-----L------0----L---------|
--L----------------|--L-----------------||-------------------------------|


  E   E  E  E  E  E  Q       Q    Q    E  E  E  E   
--7p--5-----------0-------|---------------------0--|
------------7--L----------|---------------0--------|
---------------------5----|-------7----------7-----|
---------7-----------7----|-------9----------5-----|
--0---L--------0--L-------|------------------------|
--------------------------|--0----L----0-----------|


          NH                                                
  E  E    E  E  E  E  E  E     E  E  E  E   E    E   Q      
--L-------------------0--8--|-----L--------10s--12---------|
-------------0--L-----------|-----------0------------------|
-----7----L--------7--------|-----0-----L------------------|
--------<>7-----------------|--------9--------------11s----|
----------------------------|--0--------L---0----L---------|
--0--L----------0--L--------|------------------------------|


  E   E  E  E  E  E  E  E     Q    Q    E  E  E  E   
--7p--5-----------0--------|---------------------0--|
------------7--L-----------|---------------0--------|
------------------------5--|-------7----L-----7-----|
---------7-----------7-----|-------9----L-----5-----|
--0---L--------0--------L--|------------------------|
---------------------------|--0----L----0-----------|


          NH            NH               NH            NH     
  E  E    E  E  E  E    E  E     E  E    E  E  E  E    E  E   
--L------------------------0--|--L------------------------0--|
-------------0--L-------------|-------------0--L-------------|
-----7-------------7----------|-----7-------------7----------|
--------<>7-------------------|--------<>7-------------------|
----------------------<>7-----|----------------------<>7-----|
--0--L----------0--L----------|--8--L----------8--L----------|


          NH            NH                                  
  E  E    E  E  E  E    E  E     E  E   E  E  E  E   E  E   
--L------------------------0--|--L-------------------------|
-------------0--L-------------|------------0---------------|
-----7----L--------7----------|-----0h--2--------0h--L--2--|
--------<>7-------------------|----------------------0-----|
----------------------<>7-----|----------------------------|
--8--L----------8--L----------|--3---------L--3---------L--|


  E  E  E  E  E  S  S E  E     E  E  E   E  T  S.E  E   E   
----------------------------|------------------------------|
-----0-----L--0--2p-0----0--|-----L-----------------0------|
-----------2----------0-----|-----0--L-----------0---------|
--------0-------------------|--------0h--2--L-------0h--7--|
----------------------------|--3---------L----/7--------L--|
--3--------L--3----------L--|------------------------------|


  T   S.E  E   E  T   S.E  E    E      E  E   E  E   E  E   E  E   
-----------------------------------|---0--L--------------------0--|
-----------0-----------------------|-------------0------L---------|
--------0---------------0----------|------0-------------0---------|
--L--------0h--9--L--------0h--14--|---------14------------14-----|
----/10--------L----/15---------L--|--13--L---------13--L---------|
-----------------------------------|------------------------------|


   E  E   E  E   E  E  E  E     E  E  E   E  T  S.E  E   E   
---L-------------------------|------------------------------|
-------------0------L-----0--|-----L-----------------0------|
------0-------------0--------|-----0--L-----------0---------|
---------14------------0-----|--------0h--2--L-------0h--7--|
--12--L----------------------|--3---------L----/7--------L--|
----------------15--L--------|------------------------------|


  T   S.E  E   E  T   S.E  E    E      E  E   E  E   E  E   E  E   
-----------------------------------|---0--L--------------------0--|
-----------0-----------------------|-------------0------L---------|
--------0---------------0----------|------0-------------0---------|
--L--------0h--9--L--------0h--14--|---------14------------14-----|
----/10--------L----/15---------L--|--13--L---------13--L---------|
-----------------------------------|------------------------------|


                                                      NH    
   E  E   E  E   E  E  E  E     E  E   E   E  E  E    Q     
---L-------------------------|-----------------------------|
-------------0------L-----0--|-----------------------------|
------0-------------0--------|---------0h--5--------<>7----|
---------14------------0-----|---------0h--5--------<>7----|
--12--L----------------------|-----0h--L---5-----0---------|
----------------15--L--------|--0----------L--0-------L----|


                                                      NH    
  E  E   E   E  E  T  S.Q       E  E   E   E  E  E    Q     
-----------------------------|-----------------------------|
-----------------------------|-----------------------------|
-----L---0h--5----------7----|---------0h--5--------<>7----|
-----L---0h--5----------7----|---------0h--5--------<>7----|
-----0h--L---5---------------|-----0h--L---5-----0---------|
--0----------L--0--L-/7------|--0----------L--0-------L----|


  E  E   E   E  E  T  S.Q        E  E   E   E  E  E   E   E   
-----------------------------|--10----------------L----------|
-----------------------------|-----------------------12--12--|
---------0h--5----------7----|------0h--L---5---------0---0--|
---------0h--5----------7----|----------0h--5-----0-------L--|
-----0h--L---5---------------|----------0h--5----------------|
--0----------L--0--L-/7------|---0----------L--0----------L--|


  E  E  T  S.E  E  E  E  E     E  E   E   E  E  E  E  E   
----------------------------|----------------------------|
--L-------/9-9--------------|----------------------------|
--L--------0-0--------9--9--|---------L------------9--9--|
-----0--L----L-----0-----L--|---------0h--5--------------|
----------------------------|-----0h--L---5-----0-----L--|
--0----------L--0--------L--|--0----------L--0--------L--|


  E  E   E   E  E   E    Q        E  E   E   E  E  E   E   E   
------------------------------|--10----------------L----------|
------------------------------|-----------------------12--12--|
---------L--------------------|------0h--L---5---------0---0--|
---------0h--5-----(0)h--7----|----------0h--5-----0-------L--|
-----0h--L---5------0h---7----|----------0h--5----------------|
--0----------L--0--------L----|---0----------L--0----------L--|


  E  E  T  S.E  E  E  E  E     E  E   E   E  E  E   E  E   
----------------------------|-----------------------------|
--L-------/9-9--------------|-----------------------------|
--L--------0-0--------9--9--|---------L------------10--9--|
-----0--L----L-----0-----L--|---------0h--5---------------|
----------------------------|-----0h--L---5-----0------L--|
--0----------L--0--------L--|--0----------L--0---------L--|


  E  E   E   E  E  E   E   E     E  E   E   E  E  E  E   E   
------------------------------|-----------------------------|
------------------------------|---------0h--7--------7p--0--|
---------L--------------------|---------0h--7--------7p--0--|
---------0h--5---------0h--7--|-----0h--L---7-----0--7p--0--|
-----0h--L---5-----0h--L---7--|-----------------------------|
--0----------L--0----------L--|--8----------L--8------------|


  E  E   E   E  E  E  E   E     E  E  E   E  T  S.E  E   E   
-----------------------------|------------------------------|
---------0h--2--------2p--0--|-----------------------0------|
---------0h--2--------2p--0--|-----0--L-----------0---------|
-----0h--L---2-----0--2p--0--|--------0h--2--L-------0h--7--|
-----------------------------|--3---------L----/7--------L--|
--3-------------3------------|------------------------------|


                     NH                                        
  T   S.E  E   E     Q    Q        E  E   E   E  E  E  E   E   
------------------<>12----L-----|-----------------------------|
-----------0------<>12----L-----|---------0h--7--------7p--0--|
--------0---------<>12----L-----|---------0h--7--------7p--0--|
--L--------0h--9--<>12----L-----|-----0h--L---7-----0--7p--0--|
----/10--------L----------------|-----------------------------|
--------------------------3s----|--8----------L--8------------|


  E  E   E   E  E  E  E   E     E  E   E   E  E  E   E   E   
-----------------------------|---------0h--1---------0h--3--|
---------0h--2--------2p--0--|---------0-------------0------|
---------0h--2--------2p--0--|-----0h--L---2-----0h--L---5--|
-----0h--L---2-----0--2p--0--|--0----------L--0----------L--|
-----------------------------|------------------------------|
--3-------------3------------|------------------------------|


  E  E   E   E  E  E  Q         E  E  E  E   E    E   Q      
---------0h--5--------8-----||-----L--------10s--12---------|
---------0------------------||-----------0------------------|
-----0h--L---7-----0--L----*||-----0------------------------|
--0----------L--0-----L----*||--------9--------------11s----|
----------------------------||--0-----L------0----L---------|
----------------------------||------------------------------|


  E   E  E  E  E  E  Q       Q    Q    E  E  E  E   
--7p--5-----------0-------|---------------------0--|
------------7--L----------|---------------0--------|
---------------------5----|-------7----L-----7-----|
---------7-----------7----|-------9----L-----5-----|
--0---L--------0--L-------|------------------------|
--------------------------|--0---------0-----------|


          NH                                                
  E  E    E  E  E  E  E  E     E  E  E  E   E    E   Q      
--L-------------------0--8--|-----L--------10s--12---------|
-------------0--L-----------|-----------0------------------|
-----7----L--------7--------|-----0-----L------------------|
--------<>7-----------------|--------9--------------11s----|
----------------------------|--0--------L---0----L---------|
--0--L----------0--L--------|------------------------------|


  E   E  E  E  E  E  E  E     Q    Q    E  E  E  E   
--7p--5-----------0--------|---------------------0--|
------------7--L-----------|---------------0--------|
------------------------5--|-------7----L-----7-----|
---------7-----------7-----|-------9----L-----5-----|
--0---L--------0--------L--|------------------------|
---------------------------|--0----L----0-----------|


          NH            NH               NH            NH     
  E  E    E  E  E  E    E  E     E  E    E  E  E  E    E  E   
--L------------------------0--|--L------------------------0--|
-------------0--L-------------|-------------0--L-------------|
-----7-------------7----------|-----7-------------7----------|
--------<>7-------------------|--------<>7-------------------|
----------------------<>7-----|----------------------<>7-----|
--0----------L--0----------L--|--8----------L--8----------L--|


          NH            NH               NH            NH     
  E  E    E  E  E  E    E  E     E  E    E  E  E  E    E  E   
--L------------------------0--|--L---------------------------|
-------------0--L-------------|-------------0--L----------0--|
-----7----L--------7----------|-----7----L--------7----------|
--------<>7-------------------|--------<>7-------------------|
----------------------<>7-----|----------------------<>7-----|
--8----------L--8----------L--|--8----------L--8----------L--|


          NH            NH                                   
  E  E    E  E  E  E    E  E     E  E   E  E  E  E   E   E   
--L---------------------------|-----------------------------|
-------------0--L----------0--|-----------------------------|
-----7----L--------7----------|------------------0h--2p--0--|
------------------------------|------------0----------------|
--------<>7-----------<>7-----|-----0h--2-----3-------------|
--8----------L--8----------L--|--3------L-------------------|


  E  E   E  E   E  E   E   E     E  E   E  E  E  E   E   E   
------------------------------|-----------------------------|
------------------------------|-----------------------------|
------------L------0h--5p--0--|---------L--------0h--2p--0--|
------------0h--5-------------|------------0----------------|
-----0h--5--------------------|-----0h--2-----3-------------|
--5---------------------------|--3------L-------------------|


  E  E   E  E   E  E   E  E     E  E   E  E  E  E   E   E   
-----------------------------|-----------------------------|
-----------------------------|-----------------------------|
---------L----------------0--|---------L--------0h--2p--0--|
------------0h--5--0h--5-----|------------0----------------|
-----0h--5-------------------|-----0h--2-----3-------------|
--5--------------------------|--3--------------------------|


  E  E   E  E   E  E  E  E    
----------------------------||
----------------------0--0--||
--L------L---------0-----0--||
------------0h--5--------0--||
-----0h--5---------------3--||
--5-------------------------||




Duration Legend
---------------
W - whole
H - half
Q - quarter
E - 8th
S - 16th
T - 32nd
X - 64th
. - note dotted
|-n-|  - n-tuplets


Tablature Legend
----------------
L - tied note
x - dead note
g - grace note
(n) - ghost note
> - accentuded note
NH - natural harmonic
AH - artificial harmonic
TH - tapped harmonic
SH - semi harmonic
PH - pitch harmonic
h - hammer on
p - pull off
b - bend
br - bendRelease
pb - preBend
pbr - preBendRelease
brb - bendReleaseBend
\n/ - tremolo bar dip
\n - tremolo bar dive
-/n - tremolo bar Release up
/n\ - tremolo bar inverted dip
/n - tremolo bar return
-\n - tremolo bar Release down
S - shift slide
s - legato slide
/ -  slide into from below or out of upwards
\ -  slide into from above or out of downwards
~ - vibrato
W - wide vibrato
tr - trill
TP - tremolo picking
T - tapping
S - slap
P - pop
< - fade in
^ - brush up
v - brush down
comments
We did not receive enough feedback on this tab! Please rate:
print report bad tab
1 2 3 4 5
I want to post or [tab]
guest
You may want to rate the tab now too:
select rating
Please do not post tabs as comments. Select "correction" instead!