Oops, an error
Loading. Please wait.

The Departure Tab

ver1
ver1

Whole song

More versions @911Tabs.com
2,542 views 3 this week
no commentswrite comment
1 2 3 4 5
excellent!
x 2
add to favorites launch autoscroll
font size
0
reset
Autoscroll
+/-
esc
set tempo
stop
WARNING: You are trying to view
                                    content from Ultimate-Guitar.com
                                    in an unauthorized application,
                                    which is prohibited.

                                    Please use an official Ultimate
                                    Guitar Tabs application for iPhone,
                                    iPad or Android to access legitimate
                                    chords, guitar, bass, and drum tabs
                                    from Ultimate-Guitar.com database.

                                    Type "ultimate guitar tabs" in Apple
                                    App Store's or Android Market's
                                    search to find the application.
The Departure                                   
by Michael Nyman

Tab by VZ

     Q     Q    Q    Q       H        H           Q     Q    Q    Q     
E||--1p----0--------------|--------------------|--1p----0--------------|
B||-------------3---------|--1--------3--------|-------------1---------|
G||--2---------------2----|--2--------L--------|--2---------------2----|
D||--3---------------L----|--3--------L--------|--3---------------L----|
A||-----------------------|--------------------|-----------------------|
E||-----------------------|--------------------|-----------------------|
 
 
  H        H             Q    Q    Q     Q       Q     Q    Q    Q     
--------------------|---------0----1p----0----|--1p----0--------------|
--1-----------------|-------------------------|-------------1---------|
--2--------2--------|--2g2--------------------|--2---------------2----|
--3--------L--------|----3---------------L----|--3---------------L----|
--------------------|-------------------------|-----------------------|
--------------------|-------------------------|-----------------------|
 
 
  H        H           Q     Q    Q    Q       H        H         
--------------------|--1p----0--------------|--------------------|
--1--------3--------|-------------1---------|--1--------3--------|
--2--------L--------|--3---------------2----|--------------------|
--3--------L--------|--3---------------L----|--3--------L--------|
--------------------|-----------------------|--------------------|
--------------------|-----------------------|--------------------|
 
 
  Q    Q     Q     Q       Q     Q    Q    Q       H        H         
-------0h----1h----3----|--5p----3----1---------|--1--------3--------|
--1---------------------|------------------1----|--1--------L--------|
--0----------------L----|--2---------------L----|--------------------|
------------------------|-----------------------|--2--------L--------|
------------------------|-----------------------|--------------------|
------------------------|-----------------------|--------------------|
 
 
  Q     Q    Q    Q       H        H           Q     Q    Q    Q     
--5p----3----1---------|--1-----------------|--1p----0--------------|
------------------3----|-----------3--------|-------------3---------|
-----------------------|--------------------|--2-----L---------2----|
-----------------------|--------------------|-----------------------|
-----------------------|--------------------|-----------------------|
-----------------------|--------------------|-----------------------|
 
 
  ^                                                                 
  H        H             Q    Q    Q     Q       H        H         
--------------------|---------0----1p----0----|--3--------0--------|
--1--------3--------|-------------------------|--1--------L--------|
--0--------L--------|--2g2--------------------|--------------------|
--0--------L--------|----3---------------L----|--2--------L--------|
--------------------|-------------------------|--------------------|
--------------------|-------------------------|--------------------|
 
 
  Q     Q    Q    Q       H        H           Q     Q    Q    Q     
--1p----0--------------|--------------------|--1p----0--------------|
-------------3---------|--1--------3--------|-------------1---------|
--2---------------2----|--2--------L--------|--2---------------2----|
--3---------------L----|--3--------L--------|--3---------------L----|
-----------------------|--------------------|-----------------------|
-----------------------|--------------------|-----------------------|
 
 
  H        H             Q    Q    Q     Q       Q     Q    Q    Q     
--------------------|---------0----1p----0----|--1p----0--------------|
--1-----------------|-------------------------|-------------1---------|
-----------2--------|--2g2--------------------|--2---------------2----|
--3--------L--------|----3--------------------|--3---------------L----|
--------------------|-------------------------|-----------------------|
--------------------|-------------------------|-----------------------|
 
 
  H        H           Q     Q    Q    Q       H        H         
--------------------|--1p----0--------------|--------------------|
--1--------3--------|-------------1---------|--1--------3--------|
--------------------|--3---------------2----|--------------------|
--3--------L--------|--3---------------L----|--2--------L--------|
--------------------|-----------------------|--------------------|
--------------------|-----------------------|--------------------|
 
 
  Q    Q     Q     Q       Q     Q    Q    Q       H        H         
-------0h----1h----3----|--5p----3----1---------|--1--------3--------|
--1---------------------|------------------1----|--1--------L--------|
--0----------------L----|--2---------------L----|--------------------|
------------------------|-----------------------|--3--------L--------|
------------------------|-----------------------|--------------------|
------------------------|-----------------------|--------------------|
 
 
  Q     Q    Q    Q       H        H           Q     Q    Q    Q     
--5p----3----1---------|--1-----------------|--1p----0--------------|
------------------3----|-----------3--------|-------------3---------|
-----------------------|--------------------|--2-----L---------2----|
--3---------------L----|--0-----------------|-----------------------|
-----------------------|--------------------|-----------------------|
-----------------------|--------------------|-----------------------|
 
 
  H        H             Q    Q    Q     Q       H        H         
--------------------|---------0----1p----0----|--3--------0--------|
-----------3--------|-------------------------|--1--------L--------|
--0-----------------|--2g2--------------------|--------------------|
--0-----------------|----3---------------L----|--2--------L--------|
--------------------|-------------------------|--------------------|
--------------------|-------------------------|--------------------|
 
 
  E  S S E  E  E  Q    E     E  S S E  E  E  Q    E   
--------------------------|------------------0----1--|
-----1---1--3--L--1-------|-----1---1--3--L----------|
--2----2---------------2--|--2----2------------------|
--3--------------------L--|--3--------------------L--|
--------------------------|--------------------------|
--------------------------|--------------------------|
 
 
  E  S S E  E  E  Q    E     E  S S E  E  E  Q    E   
--1--0---0--1--L--0-------|--1--0---0--1--L--3----1--|
-------3---------------3--|-------3------------------|
--2--------------------L--|--3--------------------L--|
--3--------------------L--|--3--------------------L--|
--------------------------|--------------------------|
--------------------------|--------------------------|
 
 
  E  S S E  E  E  Q    E     E  S S E  E  E  Q    E   
--1--0---0--1--L--3----1--|--1--0---0--1--L--0-------|
-------3------------------|-------3---------------3--|
--2--------------------L--|--2--------------------L--|
--------------------------|--------------------------|
--------------------------|--------------------------|
--------------------------|--------------------------|
 
 
  E  S S E  E  E  Q    E     E  S S E  E  E  Q    E   
------------------0----1--|--1--0---1--3--L--1-------|
-----1---1--3--L----------|-------3---------------3--|
--2----2------------------|--2--------------------L--|
--3--------------------L--|--------------------------|
--------------------------|--------------------------|
--------------------------|--------------------------|
 
 
  E  S S E  E  E  Q    E     E  S S E  E  E  Q    E   
---------0--3--L--1----0--|---------0--1--L--3----1--|
-----1--------------------|--3--1-3------------------|
--2----2------------------|--2--------------------L--|
--3--------------------L--|--3--------------------L--|
--------------------------|--------------------------|
--------------------------|--------------------------|
 
 
                              ^                                             
  E  S S E  E  E  Q    E      Q      Q     Q    Q       H         H         
---------0--1--L--3----1--|--13p----12----10----5----|--8--------10--------|
--3--1-3------------------|--10----------------------|--6------------------|
--3--------------------L--|--10-----------------2----|--7------------------|
--3--------------------L--|--------------------------|---------------------|
--------------------------|--------------------------|---------------------|
--------------------------|--------------------------|---------------------|
 
 
   Q      Q    Q    Q       H        H           Q     Q      Q      Q     
--13p----12----8----5----|--8--------5--------|--5----12h----13p----12----|
-------------------------|--6-----------------|---------------------------|
--10---------------------|--7-----------------|--2------------------------|
---8---------------------|--------------------|---------------------------|
-------------------------|--------------------|---------------------------|
-------------------------|--------------------|---------------------------|
 
 
   Q      Q    Q    Q       H         H            Q      Q    Q    Q     
--13p----12----8----5----|--8--------10--------|--13p----12----8----5----|
-------------------------|--6------------------|-------------------------|
--10----------------2----|--7------------------|--10---------------------|
-------------------------|---------------------|-------------------------|
-------------------------|---------------------|-------------------------|
-------------------------|---------------------|-------------------------|
 
 
  ^                  
  W                  
--5----------------||
--6----------------||
--7----------------||
--7----------------||
-------------------||
-------------------||
 
 
 
 
Duration Legend
---------------
W - whole
H - half
Q - quarter
E - 8th
S - 16th
T - 32nd
X - 64th
. - note dotted
|-n-|  - n-tuplets
 
 
Tablature Legend
----------------
L - tied note
g - grace note
h - hammer on
p - pull off
^ - brush up
v - brush down
comments
We did not receive enough feedback on this tab! Please rate:
1 2 3 4 5
I want to post or [tab]
guest
You may want to rate the tab now too:
select rating
Please do not post tabs as comments. Select "correction" instead!