Oops, an error
Loading. Please wait.

Give It Up Tab

ver2
ver2

Solo

Whole song

More versions @911Tabs.com
2,850 views 3 this week
1 commentread comment
1 2 3 4 5
excellent!
x 2
Autoscroll
+/-
esc
set tempo
stop
Contributor
Hey! There's an official Ultimate Guitar app which is ideal
for learning songs when you're away from computer. Get the app
WARNING: You are trying to view
                                    content from Ultimate-Guitar.com
                                    in an unauthorized application,
                                    which is prohibited.

                                    Please use an official Ultimate
                                    Guitar Tabs application for iPhone,
                                    iPad or Android to access legitimate
                                    chords, guitar, bass, and drum tabs
                                    from Ultimate-Guitar.com database.

                                    Type "ultimate guitar tabs" in Apple
                                    App Store's or Android Market's
                                    search to find the application.
Midtown
Give it Up
Tuning:Drop D


...yea i got tired so i didnt edit....took me bout an hour or two....but here it is!
------------------------------------------------------------------------|
------------------------------------------------------------------------|
------------------------------------------------------------------------|
-8---8---8---8---8---8---8---8---8---8---8---8---8---8---8---8----------|
-8---8---8---8---8---8---8---8---8---8---8---8---8---8---8---8----------|
-8---8---8---8---8---8---8---8---8---8---8---8---8---8---8---8----------|x3

bass part(come in after second time)
-------------------------6----------------------------------------------|
-8-8-6-8---8-6-8---8-6-8-----6---4-4-3-4---4-3--------------------------|
-----------------------------------------------6---4-6-8-6---4----------|
------------------------------------------------------------------------|x2

guitar 1
-------------------------------------------------------------------------|
-------------------------------------------------------------------------|
-------------------------------------------------------------------------|
-8-8-8-8-8-8-8-8---4-4-4-4-4-4-4-4---8-8-8-8-8-8-8-8---4-4-4-4-4-4-4-4---|
-8-8-8-8-8-8-8-8---4-4-4-4-4-4-4-4---8-8-8-8-8-8-8-8---4-4-4-4-4-4-4-4---|
-8-8-8-8-8-8-8-8x2-4-4-4-4-4-4-4-4x2-8-8-8-8-8-8-8-8x2-4-4-4-4-4-4-4-4x2-|


-------------------------------------------------------------------------|
-------------------------------------------------------------------------|
-------------------1111111111111111---------------------1111111111111111-|
-8-8-8-8-8-8-8-8---1111111111111111---8-8-8-8-8-8-8-8---1111111111111111-|
-8-8-8-8-8-8-8-8---9-9-9-9-9-9-9-9-x2-8-8-8-8-8-8-8-8x2-9-9-9-9-9-9-9-9--|x2
-8-8-8-8-8-8-8-8-x2-------------------8-8-8-8-8-8-8-8--------------------|


guitar 1
------------------------------------------------------------------------|
------------------------------------------------------------------------|
-----10------------------10b11---10---8---6---5h6p5---------------------|
-8--------------------------------------------------6---8---------------|
------------------------------------------------------------------------|
------------------------------------------------------------------------|

guitar2
------------------------------------------------------------------------|
------------------------------------------------------------------------|
--------------------------------------6/11~-----------------------------|
------------------------------------------------------------------------|
------------------------------------------------------------------------|
---------------6-8-6---4------------------------------------------------|


guitar1
-------------------------------------------------------------------------|
-------------------------------------------------------------------------|
-------------------------------------------------------------------------|
-8-8-8-8-8-8-8-8---4-4-4-4-4-4-4-4---8-8-8-8-8-8-8-8---4-4-4-4-4-4-4-4---|
-8-8-8-8-8-8-8-8---4-4-4-4-4-4-4-4---8-8-8-8-8-8-8-8---4-4-4-4-4-4-4-4---|
-8-8-8-8-8-8-8-8x2-4-4-4-4-4-4-4-4x2-8-8-8-8-8-8-8-8x2-4-4-4-4-4-4-4-4x2-|

guitar 2
------------------------------------------------------------------------|
-------9-------9-------9---------------4------4-------4-----------------|
-----6-------6-------6-----6---------6------6-------6-----6-------------|
---8-------8-------8-----------8---8------8-------8-----------8---------|
------------------------------------------------------------------------|x2
------------------------------------------------------------------------|
guitar 1
---------------------------------------------------|
---------------------------------------------------|
---------------------------------------------------|
-4------------------------6------------------------|
-4------------------------6------------------------|
-4------------------------6------------------------|


guitar 2
--------------------------------------------------|
--------------------------------------------------|
-----///////////////------------------------------|
-----///Pickslide///------------------------------|
-----///////////////------------------------------|
--------------------------------------------------|


both guitars
---------------------------------------------------------|
---------------------------------------------------------|
---------------------------------------------------------|
-8-6-8------8-6-4---4-4---4-4-4---1---1-1---4---1--6-----|
-8-6-8------8-6-4---4-4---4-4-4---1---1-1---4---1--6-----|
-8-6-8------8-6-4---4-4---4-4-4---1---1-1---4---1--6-----|


------------------------------------------------------|
------------------------------------------------------|
------------------------------------------------------|
-8-6-8------8-6-4---4-4---4-4-4---1---1-1---4---4-6---|
-8-6-8------8-6-4---4-4---4-4-4---1---1-1---4---4-6---|
-8-6-8------8-6-4---4-4---4-4-4---1---1-1---4---4-6---|


-------------------------------------------------------|
-------------------------------------------------------|
-------------------------------------------------------|
-8---8---8---8---8---8---8---8---8---8---8-------------|
-8---8---8---8---8---8---8---8---8---8---8-------------|
-8---8---8---8---8---8---8---8---8---8---8-------------|

guitar 1
----------------------------------------------------------|
----------------------------------------------------------|
--------------------------111111-----111111---------------|
-8-8-8--------8-8-8-------111111-----111111---------------|
-8-8-8--------8-8-8--------9-9-9--x2--9-9-9--x2-----------|x2
-8-8-8---x2---8-8-8---x2----------------------------------| . .          . .          . .        . .

guitar 2
------------------------------4-2---4-2---4--------------------------|
----------------------------------4-----4----------------------------|
-----------------------------------------------13-11---13-11---13----|
-----------------------------------------------------13-----13-------|
---------------------------------------------------------------------|
---------------------------------------------------------------------|
(if your playing the first part, play the this little lick on the D and G
only the first time)
-------------------------------------------------------------------------|
-------------------------------------------------------------------------|
-------------------------------------------------------------------------|
-8-8-8-8-8-8-8-8---4-4-4-4-4-4-4-4---8-8-8-8-8-8-8-8---4-4-4-4-4-4-4-4---|
-8-8-8-8-8-8-8-8---4-4-4-4-4-4-4-4---8-8-8-8-8-8-8-8---4-4-4-4-4-4-4-4---|
-8-8-8-8-8-8-8-8x2-4-4-4-4-4-4-4-4x2-8-8-8-8-8-8-8-8x2-4-4-4-4-4-4-4-4x2-|

guitar 2
------------------------------------------------------------------------|
-------9-------9-------9---------------4------4-----7-6---7-6-----------|
-----6-------6-------6-----6---------6------6-----6-----6-----6--8------|
---8-------8-------8-----------8---8------8-----------------------------|
------------------------------------------------------------------------|x2
------------------------------------------------------------------------|


both guitars
--------------------------------------------------------|
--------------------------------------------------------|
--------------------------------------------------------|
-8-6-8------8-6-4---4-4---4-4-4---1---1-1---4----6------|
-8-6-8------8-6-4---4-4---4-4-4---1---1-1---4----6------|
-8-6-8------8-6-4---4-4---4-4-4---1---1-1---4----6------|x3


-------------------------------------------------------------------------|
-------------------------------------------------------------------------|
-------------------------------------------------------------------------|
-8-6-8------8-6-4---4-4---4-4-4--1-1-1-1-1-1-1-1-1-1-3-3-3-3-3-3-3-3-3-8-|
-8-6-8------8-6-4---4-4---4-4-4--1-1-1-1-1-1-1-1-1-1-3-3-3-3-3-3-3-3-3-8-|
-8-6-8------8-6-4---4-4---4-4-4--1-1-1-1-1-1-1-1-1-1-3-3-3-3-3-3-3-3-3-8-|

----------------------------------------------------------------------|
----------------------------------------------------------------------|
----------------------------------------------------------------------|
-8---6---8---6---8---6---8---6---8---6---8---6---8---6---8---6--------|
---8---8---8---8---8---8---8---8---8---8---8---8---8---8---8---8------|x3
----------------------------------------------------------------------|


----------------------------------------------------------------------|
----------------------------------------------------------------------|
----------------------------------------------------------------------|
-8---6---8---6---8---6---8---6---8------------------------------------|
---8---8---8---8---8---8---8---8--------------------------------------|
----------------------------------------------------------------------|

----------------------------------------------------------------------|
--------------------------------13-14-13------------------------------|
-15-13-15---15-13-15---15-13-15----------15-13-15-13-15---15-13-15----|
----------------------------------------------------------------------|
----------------------------------------------------------------------|
----------------------------------------------------------------------|


----------------------------------------------------------------------|
----------13-14-13------------------------------------13-14-13--------|
-15-13-15---------15-13-15-13-15---15-13-15---15-13-15--------15-13---|
----------------------------------------------------------------------|
----------------------------------------------------------------------|
----------------------------------------------------------------------|


--------------------------------13----------------------------------------|
----------------------------------16-14-13-14------------14-13-14---------|
-15-13-15---15-13-15---15-13-15---------------15-13-15-----------15-13-15-|
--------------------------------------------------------------------------|
--------------------------------------------------------------------------|
--------------------------------------------------------------------------|

-13-----------------------------------------13---------------------------|
---16-14-13-14------------14-13-14-------------16-14-13-14---------------|
---------------15-13-15------------15-13-15----------------15-13-15------|
-------------------------------------------------------------------------|
-------------------------------------------------------------------------|
-------------------------------------------------------------------------|

-------------------13---------------------------------------13------------|
-14-13-14-------------16-14-13-14----------14-13-14-----------16-14-13-14-|
----------15-13-15----------------15-13-15----------15-13-15--------------|
--------------------------------------------------------------------------|
--------------------------------------------------------------------------|
--------------------------------------------------------------------------|

----------16----------16----------16-14-13----13---------------|
-14-13-14----14-13-14----14-13-14----------16------------------|
---------------------------------------------------------------|
---------------------------------------------------------------|
---------------------------------------------------------------|
---------------------------------------------------------------|

----------16----------16----------16-14-13----13---------------|
-14-13-14----14-13-14----14-13-14----------16------------------|
---------------------------------------------------------------|
---------------------------------------------------------------|
---------------------------------------------------------------|
---------------------------------------------------------------|

----------16----------16----------16-14-13----13---------------|
-14-13-14----14-13-14----14-13-14----------16------------------|
---------------------------------------------------------------|
---------------------------------------------------------------|
---------------------------------------------------------------|

----------16----------16----------16-14-13----13---------------|
-14-13-14----14-13-14----14-13-14----------16------------------|
---------------------------------------------------------------|
---------------------------------------------------------------|
---------------------------------------------------------------|
---------------------------------------------------------------|


-18b20--------18---18------18-18----18b21r20-----18-------------|    x2
----------------------------------------------------------------|
----------------------------------------------------------------|
----------------------------------------------------------------|
----------------------------------------------------------------|
----------------------------------------------------------------|


---------------------------------------------------------------|
-------13-14-13------------------------------------------------|
-13-15----------15-13-15-13-15---------------------------------|
---------------------------------------------------------------|
---------------------------------------------------------------|
---------------------------------------------------------------|


---------------------------------------------------------------|
---------------------------------------------------------------|
---------------------------------------------------------------|
-----------------------8---------------------------------------|
-----------------------8---------------------------------------|
-8-8-6-8---8-6-8---8-6-8---------------------------------------|
comments
We did not receive enough feedback on this tab! Please rate:
print report bad tab
1 2 3 4 5
1 comment total.
0 reply
cobra21adam wrote on April 16 2008, 06:03 pm

great tab, small things here and there, but not hard to figure out, lik u said, u didnt edit...great solo

I want to post or [tab]
guest
You may want to rate the tab now too:
select rating
Please do not post tabs as comments. Select "correction" instead!