Oops, an error
Loading. Please wait.

Just Rock And Roll Tab

ver1
ver1

Whole song

More versions @911Tabs.com
4,349 views 1 this week
5 commentsread comments
1 2 3 4 5
excellent!
x 7
Autoscroll
+/-
esc
set tempo
stop
Hey! There's an official Ultimate Guitar app which is ideal
for learning songs when you're away from computer. Get the app
WARNING: You are trying to view
                                    content from Ultimate-Guitar.com
                                    in an unauthorized application,
                                    which is prohibited.

                                    Please use an official Ultimate
                                    Guitar Tabs application for iPhone,
                                    iPad or Android to access legitimate
                                    chords, guitar, bass, and drum tabs
                                    from Ultimate-Guitar.com database.

                                    Type "ultimate guitar tabs" in Apple
                                    App Store's or Android Market's
                                    search to find the application.
Author/Artist: Midtown
Title: Just Rock and Roll
Album: Save the World, Lose the Girl
Transcribed by: Edoardo Felici
Email: edoardofelici@hotmail.com

email me for questions, corrections, comments or suggestions 

#Intro#
Guitar 1
-|-----------------------------------------------------------------------
-|-----------------------------------------------------------------------
-|-------------5-5--xxxx---7-7--xxxx-------------------------------------
-|-3-3--xxxx---5-5--xxxx---7-7--xxxx---7-7--xxxx---8-8--xxxx-------------
-|-3-3--xxxx---3-3--xxxx---5-5--xxxx---7-7--xxxx---8-8--xxxx-------------
-|-1-1--xxxx---------------------------5-5--xxxx---6-6--xxxx-------------
                                                         _____           _____      
Guitar 1 and 2  (Play   ending one 3x)                           1|              2|  
-|-----------------------------------------------|------------|----------------
-|-----------------------------------------------|------------|----------------
-|-------------5-5--xxxx---7-7--xxxx-------------|------------|----------------
-|-3-3--xxxx---5-5--xxxx---7-7--xxxx---7-7--xxxx-|-8-8--xxxx--|--8888-10101010-
-|-3-3--xxxx---3-3--xxxx---5-5--xxxx---7-7--xxxx-|-8-8--xxxx--|--8888-10101010-
-|-1-1--xxxx---------------------------5-5--xxxx-|-6-6--xxxx--|--6666-8-8-8-8--
   
#Solo#
Guitar 1 
-|-------------------------------------------------------------|---------------
-|-10-8---------------10-8-------8h10---10-10-8----8-10-8----8-|--repeat once--
-|------10-10--------------10-10----------------10--------10---|---------------
-|------------10---10------------------------------------------|---------------
-|-------------------------------------------------------------|---------------
-|-------------------------------------------------------------|---------------
                                                                              

-|-----------------------------------------------------|-----------------------
-|----8-10-8------------8-10-8-----------------8-------|-----------------------
-|-10--------10-9-10-----------10-9-10----9-10---10-9--|-----------------------
-|-------------------10----------------10--------------|-----------------------
-|-----------------------------------------------------|-----------------------
-|-----------------------------------------------------|-----------------------
                                                                              

-|------------------------------------------------------|----------------------
-|----8-10-8------\13-11-11-10-8--------------8---------|----------------------
-|-10--------10-9----------------9-10-10-9-10---10-9-10-|----------------------
-|------------------------------------------------------|----------------------
-|------------------------------------------------------|----------------------
-|------------------------------------------------------|----------------------
    

                                                                         
Guitar 2
-|-------------------------------------------------------|---------------------
-|-------------------------------------------------------|---------------------
-|----------5-5-5-5--7-7-7-7-----------------------------|---------------------
-|-3-3-3-3--5-5-5-5--7-7-7-7--7-7-7-7--8-8-8-8--10101010-|---------------------
-|-3-3-3-3--3-3-3-3--5-5-5-5--7-7-7-7--8-8-8-8--10101010-|---------------------
-|-1-1-1-1--------------------5-5-5-5--6-6-6-6--8-8-8-8--|---------------------
                                                                              
#Verse#
Guitar 1 and 2
-|---------------------------------------------------------|------------------
-|---------------------------------------------------------|--repeat once-----
-|-------------5-xxxxxxxx--7-xxxx--------------------------|------------------
-|-3-xxxxxxxx--5-xxxxxxxx--7-xxxx--7-xxxx--8-xxxx--10-xxxx-|------------------
-|-3-xxxxxxxx--3-xxxxxxxx--5-xxxx--7-xxxx--8-xxxx--10-xxxx-|------------------
-|-1-xxxxxxxx----------------------5-xxxx--6-xxxx--8--xxxx-|------------------
  You could never tell me...                                                 

#Interlude#                           ______               ______
Guitar 1                                   1|                   2|
-|----------------------|-------------------|---3----3----6----6-|------------
-|---6----6----5----5---|--3----3----6----6-|--------------------|------------
-|--------------------5-|----------3---33---|-----------3---33---|------------
-|-3---33---------------|-------------------|--------------------|------------
-|-----------3---33-----|-------------------|--------------------|------------
-|----------------------|3---33-------------|-3---33-------------|------------
  'Cause you were right then... 
                                                                           
Guitar 2
-|----------------------------------------|-----------------------------------
-|----------------------------------------|--repeat once----------------------
-|-----------55555555---------------------|-----------------------------------
-|-33333333--55555555--55555555--88888888-|-----------------------------------
-|-33333333--33333333--55555555--88888888-|-----------------------------------
-|-11111111------------33333333--66666666-|-----------------------------------
                                                   _____                 ____          
Guitar 1 and 2 (repeat ending one 3x)                  1| Guitar 2          2|  
-|-------------------------------------------|----------|---------------------
-|-------------------------------------------|----------|---------------------
-|------------5-5-xxxx---7-7-xxxx------------|----------|---------------------
-|-3-3-xxxx---5-5-xxxx---7-7-xxxx---7-7-xxxx-|-8-8-xxxx-|-88888888-1010101010-
-|-3-3-xxxx---3-3-xxxx---5-5-xxxx---7-7-xxxx-|-8-8-xxxx-|-88888888-1010101010-
-|-1-1-xxxx-------------------------5-5-xxxx-|-6-6-xxxx-|-66666666-88888888---
                 _____                                                             
  Guitar 1           2|
-|--------------------|-------------------------------------------------------
-|---3-6-5----5-8-5-6-|--Guitar 1 - play this at the end of the above bar-----
-|-3--------5---------|-------------------------------------------------------
-|--------------------|-------------------------------------------------------
-|--------------------|-------------------------------------------------------
-|--------------------|-------------------------------------------------------
                                                                              
#Verse 2#
-|----------------------------|-----------------------------------------------
-|----------------------------|-----------------------------------------------
-|----5--7--7-----------------|-----------55555555--7-7-----------------------
-|-3--5--7--7-7--7-8--8-1010--|--33333333-55555555--7-7-7-7-8-8---------------
-|-3--3--5--5-7--7-8--8-1010--|--33333333-33333333--5-5-7-7-8-8---------------
-|-1----------5--5-6--6-8-8---|--11111111---------------5-5-6-6---------------
  You can tell your story...                                 ...you never did   

Play #interlude# in between

#Bridge#
Guitar 1 (repeat once)
-|----------------------------------------------------------------------|-----
-|----------------------------------------------------------------------|-----
-|-7-7-7-7-7-7-7-7--3-3-3-3-3-3-3-3--2-2-2-2--3-3-3-3-----------3-3-3-3-|-----
-|-7-7-7-7-7-7-7-7--3-3-3-3-3-3-3-3--2-2-2-2--3-3-3-3--5-5-5-5--3-3-3-3-|-----
-|-5-5-5-5-5-5-5-5--1-1-1-1-1-1-1-1-----------1-1-1-1--5-5-5-5--1-1-1-1-|-----
-|-----------------------------------------------------3-3-3-3----------|-----
  'Cause the times they are a changin'    
                                                                        
Guitar 2 (repeat once)
-|--------------------------------------------------------------------------|-
-|--------------------------------------------------------------------------|-
-|-----------------------------------14141414--15151515--12121212--15151515-|-
-|-1212121212121212/8-8-8-8-8-8-8-8--14141414--15151515--12121212--15151515-|-
-|-1212121212121212/8-8-8-8-8-8-8-8--12121212--13131313--10101010--13131313-|-
-|-1010101010101010/6-6-6-6-6-6-6-6-----------------------------------------|-
                                                                              
Guitar 1 and 2
-|------------------------------------------------|---------------------------
-|------------------------------------------------|---------------------------
-|------------------------------------------------|---------------------------
-|-55555555--77777777--88888888--1010101010101010-|---------------------------
-|-55555555--77777777--88888888--1010101010101010-|---------------------------
-|-33333333--55555555--66666666--8-8-8-8-8-8-8-8--|---------------------------
  I'll never change 'cause I love it just the same...                                                                            

#End#
Guitar 1 and 2
-|----------------------------------------------------------------------------
-|----------------------------------------------------------------------------
-|-------------5-5--xxxx---7-7--xxxx------------------------------------------
-|-3-3--xxxx---5-5--xxxx---7-7--xxxx---7-7--xxxx---8-8--xxxx------------------
-|-3-3--xxxx---3-3--xxxx---5-5--xxxx---7-7--xxxx---8-8--xxxx------------------
-|-1-1--xxxx---------------------------5-5--xxxx---6-6--xxxx------------------
  God I wish I could hate you the rest of my life...      

Lyrics

god i wish i could hate you for the rest of my...
you can never tell me i shouldn't walk away
it's foolish to assume that i'll be coming back another day
and you were never right and i was never wrong
does truth lie in sincerity of another sullen song
'cause you were right then i should have been
the one to release it it's coming back to tease me
but i was just born and you're pride was too strong
can you change it?
are you willing to face it?

you can tell your story
and coat it any way
but you will never change who you trying to play now
your friends are falling out
they know you just don't care
they know you never did
'cause you were right then i should have been
the one to release it it's coming back to tease me
but i was just born and you're pride was too strong
can you change it?
and are you willing to face it?

because they say always
"the first one is never as good as the next hey
it's just rock and roll
even though you might think you lost it all"
cause the times they are a changin'
and who can predict what's next hey
you lost control
even though you might have thought you had it all and hey
it's just rock and roll
and i'll never change
i love it just the same
i'll never change
because i love it just the same
god i wish i could hate you the rest of my life
god i wish i could hate you the rest of my life
god i wish i could hate you the rest of my life
god i wish i could hate you for the rest of my  
(nothing would make me happier)                    
comments
print report bad tab
5 comments total. Showing first comments.
0 reply
Peace_Punk911 wrote on April 11 2002, 12:00 am

i know this may sound stupid but what do those x's mean?

0 reply
Dredoedo wrote on May 4 2002, 12:00 am

the x's mean palm-mute...

0 reply
sugarcult412 wrote on December 9 2002, 12:00 am

awesome tab, i found it easier though to p.m. only 3 times after each chord in the beginning instead of 4 times since its a fast song.

I want to post or [tab]
guest
You may want to rate the tab now too:
select rating
Please do not post tabs as comments. Select "correction" instead!