Oops, an error
Loading. Please wait.

Just Rock And Roll Tab

ver2
ver2

Whole song

More versions @911Tabs.com
983 views 1 this week
2 commentsread comments
1 2 3 4 5
accurate
x 1
Autoscroll
+/-
esc
set tempo
stop
NEW! There's an official Ultimate Guitar app which is ideal
for learning songs when you're away from computer. Get the app
WARNING: You are trying to view
                                    content from Ultimate-Guitar.com
                                    in an unauthorized application,
                                    which is prohibited.

                                    Please use an official Ultimate
                                    Guitar Tabs application for iPhone,
                                    iPad or Android to access legitimate
                                    chords, guitar, bass, and drum tabs
                                    from Ultimate-Guitar.com database.

                                    Type "ultimate guitar tabs" in Apple
                                    App Store's or Android Market's
                                    search to find the application.
Artist: Midtown
Song  : Just Rock ´n` Roll

Tabbed by: Arne
Email    : hudde@gmx.de



This should be correct. It´s only that I´m not 100% sure about only some tiny details, 
but at least it sounds like the original song. Sometimes I´m not sure if they play

D|-10-|    G|-5-|
A|-10-| or D|-5-|
E|--8-|    A|-3-|

cause I never saw them play it live, but that doesn´t really matter, cause these are
the same tones. Sometimes they stop playing (mostly when they sing "Hey..."). I 
didn´t write these little pauses down, but it´s easy to figure out how to play it 
if you just listen to the song.



Standard-Tuning:
E-A-D-G-B-e


pm . = palm muting
h    = hammer on
/    = slide up
\    = slide down



Intro  "God I wish I could hate you..."

Gtr 1 (distortion)
e|--------------------------------------------------------------------------------|
B|--------------------------------------------------------------------------------|
G|-2------------------------------------------------------------------------------|
D|-3------------------------------------------------------------------------------|
A|-3------------------------------------------------------------------------------|
E|-1------------------------------------------------------------------------------|

Gtr 2 (distortion)
pm         . . . .         . . . .         . . . .         . . . .         . . . .
e|--------------------------------------------------------------------------------|
B|--------------------------------------------------------------------------------|
G|-----------------5---5-----------7---7------------------------------------------|
D|-3---3-----------5---5---5-5-5-5-7---7---7-7-7-7-7---7-----------8---8----------|
A|-3---3---3-3-3-3-3---3---3-3-3-3-5---5---5-5-5-5-7---7---7-7-7-7-8---8---8-8-8-8|
E|-1---1---1-1-1-1---------------------------------5---5---5-5-5-5-6---6---6-6-6-6|



Gtr 1&2
pm         . . . .         . . . .         . . . .         . . . .         . . . .
e|--------------------------------------------------------------------------------|
B|--------------------------------------------------------------------------------|
G|-----------------5---5-----------7---7------------------------------------------|  2x
D|-3---3-----------5---5---5-5-5-5-7---7---7-7-7-7-7---7-----------8---8----------|
A|-3---3---3-3-3-3-3---3---3-3-3-3-5---5---5-5-5-5-7---7---7-7-7-7-8---8---8-8-8-8|
E|-1---1---1-1-1-1---------------------------------5---5---5-5-5-5-6---6---6-6-6-6|



Gtr 1&2
pm         . . . .         . . . .         . . . .         . . . .
e|----------------------------------------------------------------------------------------------|
B|----------------------------------------------------------------------------------------------|
G|-----------------5---5-----------7---7-------------------------------------------5---5---5---5|
D|-3---3-----------5---5---5-5-5-5-7---7---7-7-7-7-7---7-----------8---8---8---8---5---5---5---5|
A|-3---3---3-3-3-3-3---3---3-3-3-3-5---5---5-5-5-5-7---7---7-7-7-7-8---8---8---8---3---3---3---3|
E|-1---1---1-1-1-1---------------------------------5---5---5-5-5-5-6---6---6---6----------------|



Intro with guitar solo

Gtr 1
e|----------------------------------------------------------------------------------------------|\
B|----------------------------------------------------------------------------------------------| |
G|-----------------5---5---5---5---7---7---7---7-----------------------------------5---5---5---5| |
D|-3---3---3---3---5---5---5---5---7---7---7---7---7---7---7---7---8---8---8---8---5---5---5---5| |
A|-3---3---3---3---3---3---3---3---5---5---5---5---7---7---7---7---8---8---8---8---3---3---3---3| |
E|-1---1---1---1-----------------------------------5---5---5---5---6---6---6---6----------------| |
                                                                                                   \ 2x
Gtr 2                                                                                              /
e|----------------------------------------------------------------------------------------------| |
B|10---8--------------------------10---8------------8h10------10--10---8-------8--10---8-------8| |
G|---------9--10---------------------------9--10--------------------------10--------------10----| |
D|--------------------10------10----------------------------------------------------------------| |
A|----------------------------------------------------------------------------------------------| |
E|----------------------------------------------------------------------------------------------|/



Gtr 1
e|------------------------------------------------------------------------------------------------|
B|------------------------------------------------------------------------------------------------|
G|-----------------9---9---9---9---7---7---7---7-----------------------------------5---5---5---5--|
D|-3---3---3---3--10--10--10--10---7---7---7---7---7---7---7---7---8---8---8---8---5---5---5---5--|
A|-3---3---3---3---7---7---7---7---5---5---5---5---7---7---7---7---8---8---8---8---3---3---3---3--|
E|-1---1---1---1-----------------------------------5---5---5---5---6---6---6---6------------------|

Gtr 2
e|----------------------------------------------------------------------------------------------|
B|---------8--10---8-----------------------8--10---8-------------------------------8------------|
G|10------------------10---9--10----------------------10---9--10-----------9--10------10---9----|
D|------------------------------------10------------------------------10------------------------|
A|----------------------------------------------------------------------------------------------|
E|----------------------------------------------------------------------------------------------|



Gtr 1
e|----------------------------------------------------------------------------------------------|
B|----------------------------------------------------------------------------------------------|
G|-----------------5---5---5---5---7---7---7---7---7---7---7---7--------------------------------|
D|-3---3---3---3---5---5---5---5---7---7---7---7---7---7---7---7---8---8---8---8---8---8---8---8|
A|-3---3---3---3---3---3---3---3---5---5---5---5---5---5---5---5---8---8---8---8---8---8---8---8|
E|-1---1---1---1---------------------------------------------------6---6---6---6---6---6---6---6|

Gtr 2
e|----------------------------------------------------------------------------------------------|
B|---------8--10---8--------10/13-----11--11--11--10---8---------------------------8------------|
G|10------------------10---9-------------------------------9--10------10---9--10------10---9----|
D|----------------------------------------------------------------------------------------------|
A|----------------------------------------------------------------------------------------------|
E|----------------------------------------------------------------------------------------------|



Verse 1  "You can never tell me..."

Gtr 1
pm     . . . . . . . . . . . . . .     . . . . . . . . . . . . . .
e|----------------------------------------------------------------|
B|----------------------------------------------------------------|
G|---------------------------------5------------------------------|
D|-3-------------------------------5---5-5-5-5-5-5-5-5-5-5-5-5-5-5|
A|-3---3-3-3-3-3-3-3-3-3-3-3-3-3-3-3---3-3-3-3-3-3-3-3-3-3-3-3-3-3|
E|-1---1-1-1-1-1-1-1-1-1-1-1-1-1-1--------------------------------|

Gtr 2 (let ring)
e|----------------------------------------------------------------|
B|----------------------------------------------------------------|
G|10~~~~~~~~~~~~~~~~~~~~~~~~~~~~~~--------------------------------|
D|----------------------------------------------------------------|
A|----------------------------------------------------------------|
E|----------------------------------------------------------------|



Gtr 1
pm     . . . . . .     . . . . . .     . . . . . .     . . . . . .
e|----------------------------------------------------------------|
B|----------------------------------------------------------------|
G|-7-----------------------------------------------5--------------|
D|-7---7-7-7-7-7-7-7---------------8---------------5---5-5-5-5-5-5|
A|-5---5-5-5-5-5-5-7---7-7-7-7-7-7-8---8-8-8-8-8-8-3---3-3-3-3-3-3|
E|-----------------5---5-5-5-5-5-5-6---6-6-6-6-6-6----------------|



Gtr 1
pm     . . . . . . . . . . . . . .     . . . . . . . . . . . . . .
e|----------------------------------------------------------------|
B|----------------------------------------------------------------|
G|---------------------------------5------------------------------|
D|-3-------------------------------5---5-5-5-5-5-5-5-5-5-5-5-5-5-5|
A|-3---3-3-3-3-3-3-3-3-3-3-3-3-3-3-3---3-3-3-3-3-3-3-3-3-3-3-3-3-3|
E|-1---1-1-1-1-1-1-1-1-1-1-1-1-1-1--------------------------------|



Gtr 1
pm     . . . . . .     . . . . . .     . . . . . .     . .
e|----------------------------------------------------------------|
B|----------------------------------------------------------------|
G|-7-----------------------------------------------5-------5------|
D|-7---7-7-7-7-7-7-7---------------8---------------5---5-5-5------|
A|-5---5-5-5-5-5-5-7---7-7-7-7-7-7-8---8-8-8-8-8-8-3---3-3-3------|
E|-----------------5---5-5-5-5-5-5-6---6-6-6-6-6-6----------------|



Chorus  "Cause you were right then..."

Gtr 1
e|----------------------------------------------------------------|
B|----------------------------------------------------------------|
G|---------------------------------5---5---5---5---5---5---5---5--|
D|-3---3---3---3---3---3---3---3---5---5---5---5---5---5---5---5--|
A|-3---3---3---3---3---3---3---3---3---3---3---3---3---3---3---3--|
E|-1---1---1---1---1---1---1---1----------------------------------|

Gtr 2 (clean)
e|----------------------------------------------------------------|
B|---------6---------------6---------------5---------------5------|
G|-----5-------5-------5-------5-------5-------5-------5-------5--|
D|-7---------------7---------------5---------------5--------------|
A|----------------------------------------------------------------|
E|----------------------------------------------------------------|



Gtr 1
e|----------------------------------------------------------------|
B|----------------------------------------------------------------|
G|---------------------------------3---3---3---3---3---3---3---3--|
D|-5---5---5---5---5---5---5---5---3---3---3---3---3---3---3---3--|
A|-5---5---5---5---5---5---5---5---1---1---1---1---1---1---1---1--|
E|-3---3---3---3---3---3---3---3----------------------------------|

Gtr 2
e|----------------------------------------------------------------|
B|---------3---------------3---------------6---------------6------|
G|-----3-------3-------3-------3-------7-------7-------7-------7--|
D|-5---------------5---------------8---------------8--------------|
A|----------------------------------------------------------------|
E|----------------------------------------------------------------|



Gtr 1
e|----------------------------------------------------------------|
B|----------------------------------------------------------------|
G|---------------------------------5---5---5---5---5---5---5---5--|
D|-3---3---3---3---3---3---3---3---5---5---5---5---5---5---5---5--|
A|-3---3---3---3---3---3---3---3---3---3---3---3---3---3---3---3--|
E|-1---1---1---1---1---1---1---1----------------------------------|

Gtr 2
e|----------------------------------------------------------------|
B|---------6---------------6---------------5---------------5------|
G|-----5-------5-------5-------5-------5-------5-------5-------5--|
D|-7---------------7---------------5---------------5--------------|
A|----------------------------------------------------------------|
E|----------------------------------------------------------------|



Gtr 1
e|----------------------------------------------------------------|
B|----------------------------------------------------------------|
G|---------------------------------3---3---3---3---3---3---3---3--|
D|-5---5---5---5---5---5---5---5---3---3---3---3---3---3---3---3--|
A|-5---5---5---5---5---5---5---5---1---1---1---1---1---1---1---1--|
E|-3---3---3---3---3---3---3---3----------------------------------|

Gtr 2
e|----------------------------------------------------------------|
B|---------8---------------8--------------11--------------11------|
G|-----7-------7-------7-------7------10------10------10------10--|
D|-5---------------5---------------8---------------8--------------|
A|----------------------------------------------------------------|
E|----------------------------------------------------------------|



Bridge

Gtr 1&2
pm         . . . .         . . . .         . . . .         . . . .         . . . .
e|--------------------------------------------------------------------------------|
B|--------------------------------------------------------------------------------|
G|-----------------5---5-----------7---7------------------------------------------|2x
D|-3---3-----------5---5---5-5-5-5-7---7---7-7-7-7-7---7-----------8---8----------|
A|-3---3---3-3-3-3-3---3---3-3-3-3-5---5---5-5-5-5-7---7---7-7-7-7-8---8---8-8-8-8|
E|-1---1---1-1-1-1---------------------------------5---5---5-5-5-5-6---6---6-6-6-6|



Gtr 1&2
pm         . .   .         . .   .         . .   .         . .   .
e|----------------------------------------------------------------|
B|----------------------------------------------------------------|
G|-----------------5---5-----------7---7--------------------------|
D|-3---3-----------5---5---5-5---5-7---7---7-7---7-7---7----------|
A|-3---3---3-3---3-3---3---3-3---3-5---5---5-5---5-7---7---7-7---7|
E|-1---1---1-1---1---------------------------------5---5---5-5---5|



Gtr 1
e|----------------------------------------------------------------|
B|----------------------------------------------------------------|
G|---------------------------------5---5---5---5---5---5---5---5--|
D|-8---8---8---8---8---8---8---8---5---5---5---5---5---5---5---5--|
A|-8---8---8---8---8---8---8---8---3---3---3---3---3---3---3---3--|
E|-6---6---6---6---6---6---6---6----------------------------------|

Gtr 2
e|----------------------------------------------------------------|
B|----------------------------------------------------------------|
G|-3-------7------10-------9-------5-------9------12------10------|
D|-x-------x-------x-------x-------x-------x-------x-------x------|
A|-1-------5-------8-------7-------3-------7------10-------8------|
E|----------------------------------------------------------------|



Verse 2  "You can tell your story..."

Gtr 1
e|----------------------------------------------------------------|
B|----------------------------------------------------------------|
G|---------------------------------5------------------------------|
D|-3-------------------------------5------------------------------|
A|-3-------------------------------3------------------------------|
E|-1--------------------------------------------------------------|

Gtr 2
e|----------------------------------------------------------------|
B|----------------------------------------------------------------|
G|10-------------------------------9------------------------------|
D|-x-------------------------------x------------------------------|
A|-8-------------------------------7------------------------------|
E|----------------------------------------------------------------|



Gtr 1&2
e|----------------------------------------------------------------|
B|----------------------------------------------------------------|
G|-7-----------7-----------------------------------5-----------5--|
D|-7-----------7---7-----------7---8-----------8---5-----------5--|
A|-5-----------5---7-----------7---8-----------8---3-----------3--|
E|-----------------5-----------5---6-----------6------------------|



Gtr 1
pm     .   .   .   .   .   .   .   .   .   .   .   .
e|----------------------------------------------------------------|
B|----------------------------------------------------------------|
G|-----------------------------------------------------5---5---5--|
D|-3-------------------------------5---5---5---5---5---5---5---5--|
A|-3---3---3---3---3---3---3---3---3---3---3---3---3---3---3---3--|
E|-1---1---1---1---1---1---1---1----------------------------------|

Gtr 2
pm     .   .   .   .   .   .   .   .   .   .   .   .   .   .   .
e|----------------------------------------------------------------|
B|----------------------------------------------------------------|
G|----------------------------------------------------------------|
D|-3-------------------------------5---5---5---5---5---5---5---5--|
A|-3---3---3---3---3---3---3---3---3---3---3---3---3---3---3---3--|
E|-1---1---1---1---1---1---1---1----------------------------------|



Gtr 1&2
pm . .     . .     . .     . .     . .     . .
e|----------------------------------------------------------------|
B|----------------------------------------------------------------|
G|-----7-------7-----------------------------------5--------------|
D|-7-7-7---7-7-7-------7-------7-------8-------8---5--------------|
A|-5-5-5---5-5-5---7-7-7---7-7-7---8-8-8---8-8-8---3--------------|
E|-----------------5-5-5---5-5-5---6-6-6---6-6-6------------------|



Chorus  1x

But Gtr 2 plays this at the end of the chorus:

Gtr 2 (clean)
e|-------------------------------------------------6--------------|
B|---------8---------------8---------------6-----------6---6---8--|
G|-----7-------7-------7-------7-------7-------7------------------|
D|-5---------------5---------------8------------------------------|
A|----------------------------------------------------------------|
E|----------------------------------------------------------------|



Bridge  "Because they say always..."

Gtr 1
e|----------------------------------------------------------------|
B|----------------------------------------------------------------|
G|-7-------7-------7-------7-------7-------7-------7-------7------|
D|-7-------7-------7-------7-------7-------7-------7-------7------|
A|-5-------5-------5-------5-------5-------5-------5-------5------|
E|----------------------------------------------------------------|

Gtr 2
e|10------10------10------10------10------10----------------------|
B|10------10------10------10------10------10----------------------|
G|10------10------10------10------10------10------10-\-9---7-\-5--|
D|-------------------------------------------------x-\-x---x-\-x--|
A|-------------------------------------------------8-\-7---5-\-3--|
E|----------------------------------------------------------------|



Gtr 1
e|----------------------------------------------------------------|
B|----------------------------------------------------------------|
G|----------------------------------------------------------------|
D|-8-------8-------8-------8-------8-------8-------8-------8------|
A|-8-------8-------8-------8-------8-------8-------8-------8------|
E|-6-------6-------6-------6-------6-------6-------6-------6------|

Gtr 2
e|----------------------------------------------------------------|
B|----------------------------------------------------------------|
G|-3-----------------------------------------------9-/10--11-/12--|
D|-x-----------------------------------------------x-/-x---x-/-x--|
A|-1-----------------------------------------------7-/-8---9-/10--|
E|----------------------------------------------------------------|



Gtr 1
e|----------------------------------------------------------------|
B|----------------------------------------------------------------|
G|----------------------------------------------------------------|
D|---------7-------7-------7---8-------8---8-------8-------8------|
A|---------7-------7-------7---8-------8---8-------8-------8------|
E|---------5-------5-------5---6-------6---6-------6-------6------|

Gtr 2
e|----------------------------------------------------------------|
B|----------------------------------------------------------------|
G|12------14------14------14--15------15--15------15------15------|
D|-x-------x-------x-------x---x-------x---x-------x-------x------|
A|10------12------12------12--13------13--13------13------13------|
E|----------------------------------------------------------------|



Gtr 1
e|----------------------------------------------------------------|
B|----------------------------------------------------------------|
G|----------------------------------------------------------------|
D|-5-------5-------5-------5---8-------8---8-------8-------8------|
A|-5-------5-------5-------5---8-------8---8-------8-------8------|
E|-3-------3-------3-------3---6-------6---6-------6-------6------|

Gtr 2
e|----------------------------------------------------------------|
B|----------------------------------------------------------------|
G|16------16------16------16--15------15--15------15------15------|
D|-x-------x-------x-------x---x-------x---x-------x-------x------|
A|14------14------14------14--13------13--13------13------13------|
E|----------------------------------------------------------------|



Gtr 1
e|----------------------------------------------------------------|
B|----------------------------------------------------------------|
G|-7-------7-------7-------7-------7-------7-------7-------7------|
D|-7-------7-------7-------7-------7-------7-------7-------7------|
A|-5-------5-------5-------5-------5-------5-------5-------5------|
E|----------------------------------------------------------------|

Gtr 2
e|10------10------10------10------10------10----------------------|
B|10------10------10------10------10------10----------------------|
G|10------10------10------10------10------10------10-\-9---7-\-5--|
D|-------------------------------------------------x-\-x---x-\-x--|
A|-------------------------------------------------8-\-7---5-\-3--|
E|----------------------------------------------------------------|



Gtr 1
e|----------------------------------------------------------------|
B|----------------------------------------------------------------|
G|----------------------------------------------------------------|
D|-8-------8-------8-------8-------8-------8-------8-------8------|
A|-8-------8-------8-------8-------8-------8-------8-------8------|
E|-6-------6-------6-------6-------6-------6-------6-------6------|

Gtr 2
e|----------------------------------------------------------------|
B|----------------------------------------------------------------|
G|-3-----------------------------------------------9-/10--11-/12--|
D|-x-----------------------------------------------x-/-x---x-/-x--|
A|-1-----------------------------------------------7-/-8---9-/10--|
E|----------------------------------------------------------------|



Gtr 1
pm                                                 .     .     .
e|----------------------------------------------------------------|
B|----------------------------------------------------------------|
G|----------------------------------------------------------------|
D|---------7-------7-------7---8-------8---8----------------------|
A|---------7-------7-------7---8-------8---8-------8-----8-----8--|
E|---------5-------5-------5---6-------6---6-------6-----6-----6--|

Gtr 2
e|----------------------------------------------------------------|
B|----------------------------------------------------------------|
G|12------14------14------14--15------15--15------15----15----15--|
D|-x-------x-------x-------x---x-------x---x-------x-----x-----x--|
A|10------12------12------12--13------13--13------13----13----13--|
E|----------------------------------------------------------------|



Gtr 1
e|----------------------------------------------------------------|
B|----------------------------------------------------------------|
G|----------------------------------------------------------------|
D|-5-------5-------5-------5---8-------8---8-------8-------8------|
A|-5-------5-------5-------5---8-------8---8-------8-------8------|
E|-3-------3-------3-------3---6-------6---6-------6-------6------|

Gtr 2
e|----------------------------------------------------------------|
B|----------------------------------------------------------------|
G|16------16------16------16--15------15--15------15------15------|
D|-x-------x-------x-------x---x-------x---x-------x-------x------|
A|14------14------14------14--13------13--13------13------13------|
E|----------------------------------------------------------------|



Gtr 1
e|----------------------------------------------------------------|
B|----------------------------------------------------------------|
G|----------------------------------------------------------------|
D|---------7-------7-------7---8------8----8-------8-------8------|
A|---------7-------7-------7---8------8----8-------8-------8------|
E|---------5-------5-------5---6------6----6-------6-------6------|

Gtr 2
e|----------------------------------------------------------------|
B|----------------------------------------------------------------|
G|--------14------14----------------------------------------------|
D|---------x-------x----------------------------------------------|
A|--------12------12----------------------------------------------|
E|----------------------------------------------------------------|



Gtr 1&2
pm     .   .   .   .   .   .   .       .   .   .   .   .   .   .
e|----------------------------------------------------------------|
B|----------------------------------------------------------------|
G|----------------------------------------------------------------|
D|-5-------------------------------7------------------------------|
A|-5---5---5---5---5---5---5---5---7---7---7---7---7---7---7---7--|
E|-3---3---3---3---3---3---3---3---5---5---5---5---5---5---5---5--|



Gtr 1&2
pm     .   .   .   .   .   .   .   .   .   .
e|----------------------------------------------------------------|
B|----------------------------------------------------------------|
G|---------------------------------------------5---5---5---5---5--|
D|-8-------------------------------5---5---5---5---5---5---5---5--|
A|-8---8---8---8---8---8---8---8---3---3---3---3---3---3---3---3--|
E|-6---6---6---6---6---6---6---6----------------------------------|



Intro (part without guitar solo)  1x



End  "God I wish I could hate you..."

Gtr 1&2
e|-----------------------------------------------------------------------------------------------|
B|-----------------------------------------------------------------------------------------------|
G|-----------------5---5---5---5---7---7---7---7-----------------------------------5---5---5---5-|2x
D|-3---3---3---3---5---5---5---5---7---7---7---7---7---7---7---7---8---8---8---8---5---5---5---5-|
A|-3---3---3---3---3---3---3---3---5---5---5---5---7---7---7---7---8---8---8---8---3---3---3---3-|
E|-1---1---1---1-----------------------------------5---5---5---5---6---6---6---6-----------------|



Gtr 1&2
e|------------------------------------------------------------------------------------------------|
B|------------------------------------------------------------------------------------------------|
G|10--10--10--10---9---9---9---9---7---7---7---7--------------------------------------------------|
D|10--10--10--10--10--10--10--10---7---7---7---7---7---7---7---7---8---8---8---8--10--10--10--10--|
A|-8---8---8---8---7---7---7---7---5---5---5---5---7---7---7---7---8---8---8---8--10--10--10--10--|
E|-------------------------------------------------5---5---5---5---6---6---6---6---8---8---8---8--|



Gtr 1
e|------------------------------------------------------------------------------------------------|
B|------------------------------------------------------------------------------------------------|
G|10--10--10--10-------------------7---7---7---7---7---7---7---7----------------------------------|
D|10--10--10--10--10--10--10--10---7---7---7---7---7---7---7---7---8---8---8---8---8---8---8---8--|
A|-8---8---8---8--10--10--10--10---5---5---5---5---5---5---5---5---8---8---8---8---8---8---8---8--|
E|-----------------8---8---8---8-----------------------------------6---6---6---6---6---6---6---6--|

Gtr 2
e|------------------------------------------------------------------------------------------------|
B|------------------------------------------------------------------------------------------------|
G|14--14--14--14---9---9---9---9---7---7---7---7--12--10---9------10--10--10--10--10--10--10--10--|
D|-x---x---x---x---x---x---x---x---x---x---x---x---x---x---x-------x---x---x---x---x---x---x---x--|
A|12--12--12--12---7---7---7---7---5---5---5---5--10---8---7-------8---8---8---8---8---8---8---8--|
E|------------------------------------------------------------------------------------------------|



Gtr 1
e|----------------------------------------------------------------|
B|----------------------------------------------------------------|
G|----------------------------------------------------------------|
D|-3--------------------------------------------------------------|
A|-3--------------------------------------------------------------|
E|-1--------------------------------------------------------------|

Gtr 2
e|----------------------------------------------------------------|
B|----------------------------------------------------------------|
G|17--------------------------------------------------------------|
D|-x--------------------------------------------------------------|
A|15--------------------------------------------------------------|
E|----------------------------------------------------------------|



Gtr 1 (clean)
pm .   .       .   .   .       .   .   .       .   .   .       .
e|----------------------------------------------------------------|
B|---------1---------------1---------------1---------------1------|
G|-----2-------2-------2-------2-------2-------2-------2-------2--|
D|-3---------------0---------------3---------------0--------------|
A|----------------------------------------------------------------|
E|----------------------------------------------------------------|
comments
We did not receive enough feedback on this tab! Please rate:
print report bad tab
1 2 3 4 5
2 comments total.
0 reply
hudde wrote on July 24 2003, 12:00 am

I just noticed that I made a little mistake when I wrote the tab down.

It´s in the second bridge when they sing "Because they say always...".
Gtr 2 plays 6 times this:

e|-10-| e|-10-|
B|-10-| instead of B|-10-|
G|--7-| G|-10-|

0 reply
hudde wrote on July 29 2003, 12:00 am

Somebody told me that they don´t use palm muting for the intro and where they play the intro part. I heard the song again I think he´s right. I think they play this instead of the palm muted parts:
D|-x-x-x-x-|
A|-x-x-x-x-|
E|-x-x-x-x-|

And I noticed that in the ending all notes are palm muted.

I want to post or [tab]
guest
You may want to rate the tab now too:
select rating
Please do not post tabs as comments. Select "correction" instead!