Oops, an error
Loading. Please wait.

The Impression That I Get Tab

ver3
ver3

Whole song

Interactive

More versions @911Tabs.com
6,992 views 3 this week
no commentswrite comment
1 2 3 4 5
excellent!
x 2
Autoscroll
+/-
esc
set tempo
stop
WARNING: You are trying to view
                                    content from Ultimate-Guitar.com
                                    in an unauthorized application,
                                    which is prohibited.

                                    Please use an official Ultimate
                                    Guitar Tabs application for iPhone,
                                    iPad or Android to access legitimate
                                    chords, guitar, bass, and drum tabs
                                    from Ultimate-Guitar.com database.

                                    Type "ultimate guitar tabs" in Apple
                                    App Store's or Android Market's
                                    search to find the application.
                            THE IMPRESSOIN THAT I GET
                   As recorded by The Mighty Mighty Bosstones

Words and Music by Dicky Barret and Joe Gittleman
Arranged by Dicky Barret and Joe Gittleman
Transcribed by Stephen Brown

           E                    B                   C#m                   A
      x x x 4 5 4          x x x 8 7 7          x x x 6 5 4          x x x 6 5 5

         Eopen                 B5                   G#5                  A5
      0 2 2 1 0 0          x 2 4 x x x          4 6 x x x x          5 7 x x x x

          F#m                 Asus2
      2 4 4 2 2 2          x 0 2 2 0 0

Gtr I (E A D G B E) - 'Clean Guitar'
Gtr II (E A D G B E) - 'Trombone'
Gtr III (E A D G B E) - 'Distortion'
Gtr IV (E A D G B E) - 'Trumpet'
Gtr V (E A D G B E) - 'Sax'

 Intro
  Fast Rock Q=180
    E           B         C#m         G#m       A
 4/4
  Gtr I
  E E   +E  E E E +E  E E E   +E  E E E +E  E E E
|-x-4-|-(4)-4-x-7-(7)-7-x-4-|-(4)-4-x-4-(4)-4-x-5-|
|-x-5-|-(5)-5-x-7-(7)-7-x-5-|-(5)-5-x-4-(4)-4-x-5-|
|-x-4-|-(4)-4-x-8-(8)-8-x---|-------0-4-(4)-4-x-6-|
|-----|---------------------|---------------------|
|-----|---------------------|---------------------|
|-----|---------------------|---------------------|


          C#m                   B         E
  +E  E E E +E  E E E   +E  E E E +E  E E E
|-(5)-5-x-4-(4)-4-x-4-|-(4)-4-x-7-(7)-7-x-4--|
|-(5)-5-x-5-(5)-5-x-5-|-(5)-5-x-7-(7)-7-x-5--|
|-(6)-6-x-6-(6)-6-x-6-|-(6)-6-x-8-(8)-8-x-4--|
|---------------------|----------------------|
|---------------------|----------------------|
|---------------------|----------------------|


          B         C#m         G#m       A
  Gtr I
  +E  E E E +E  E E E   +E  E E E +E  E E E
|-(4)-4-x-7-(7)-7-x-4-|-(4)-4-x-4-(4)-4-x-5-|
|-(5)-5-x-7-(7)-7-x-5-|-(5)-5-x-4-(4)-4-x-5-|
|-(4)-4-x-8-(8)-8-x-6-|-(6)-6-x-4-(4)-4-x-6-|
|---------------------|---------------------|
|---------------------|---------------------|
|---------------------|---------------------|
|
| Gtrs II, IV, V
|  Q    E E  E  E E E    E  E E E  E  E E E
|-------7-7--7--7-7-7-|--7--7-7-7-----------|
|---------------------|---------------9---7-|
|---------------------|---------------------|
|---------------------|---------------------|
|---------------------|---------------------|
|---------------------|---------------------|


          C#m                   B
  +E  E E E +E  E E E   +E  E E E +E  E E E
|-(5)-5-x-4-(4)-4-x-4-|-(4)-4-x-7-(7)-7-x-7--|
|-(5)-5-x-5-(5)-5-x-5-|-(5)-5-x-7-(7)-7-x-7--|
|-(6)-6-x-6-(6)-6-x-6-|-(6)-6-x-8-(8)-8-x-8--|
|---------------------|----------------------|
|---------------------|----------------------|
|---------------------|----------------------|
|
| +Q    Q    H           E  E E E  E  E E E
|---------------------|--5--5-5-4------------|
|-(7)-----------------|---------------7---5--|
|---------------------|----------------------|
|---------------------|----------------------|
|---------------------|----------------------|
|---------------------|----------------------|


    E       B           C#m     A         E       B           C#m     A
  E E E E E E E E    E  E E E E E E E   E E E E E E E E    E  E E E E E E E
    | | | | |   |       |   | | |   |   | |   |   |   |       |   |   | | |
    / x / x /   /       /   / x /   /   x /   /   /   /       /   /   / / /

  Gtrs II, IV, V
  Q   E E Q   E E   +Q    Q   H         Q   E E Q   E E   +Q    Q   E E E E
|-----4---------4-|-(4)---------------|-----4---------4-|-(4)---------4---4--|
|---------7-------|-------5-----------|---------7-------|-----------7---7----|
|-----------------|-------------------|-----------------|--------------------|
|-----------------|-------------------|-----------------|--------------------|
|-----------------|-------------------|-----------------|--------------------|
|-----------------|-------------------|-----------------|--------------------|


    E       B           C#m     A         E       B           C#m     A
  E E E E E E E E    E  E E E E E E E   E E E E E E E E    E  E E E E E E E
    | | | | |   |       |   | | |   |   | |   |   |   |       |   |   | | |
    / x / x /   /       /   / x /   /   x /   /   /   /       /   /   / / /

  Q   E E Q   E E   +Q    Q   H         Q   E E Q   E E   +Q    Q   E E E E
|-----4---------4-|-(4)---------------|-----4---------4-|-(4)---------4---4--||
|---------7-------|-------5-----------|---------7-------|-----------7---7----||
|-----------------|-------------------|-----------------|--------------------||
|-----------------|-------------------|-----------------|--------------------||
|-----------------|-------------------|-----------------|--------------------||
|-----------------|-------------------|-----------------|--------------------||


 Verse
    E       B         C#m     A         E       B         C#m     A
  E E E E E E E E   E E E E E E E E   E E E E E E E E   E E E E E E E E
    |   | | |   |     | | | | |   |   | |   | | |   |     | | |   |   |
    /   / x /   /     / x / x /   /   x /   / x /   /     / x /   /   /

|-----------------|-----------------|-----------------|------------------|
|-----------------|-----------------|-----------------|------------------|
|-----------------|-----------------|-----------------|------------------|
|-----------------|-----------------|-----------------|------------------|
|-----------------|-----------------|-----------------|------------------|
|-----------------|-----------------|-----------------|------------------|


    E       B         C#m     A         E       B         C#m     A
  E E E E E E E E   E E E E E E E E   E E E E E E E E   E E E E E E E E
    |   | | |   |     | | | | |   |   | |   | | |   |     | | |   |   |
    /   / x /   /     / x / x /   /   x /   / x /   /     / x /   /   /

|-----------------|-----------------|-----------------|------------------|
|-----------------|-----------------|-----------------|------------------|
|-----------------|-----------------|-----------------|------------------|
|-----------------|-----------------|-----------------|------------------|
|-----------------|-----------------|-----------------|------------------|
|-----------------|-----------------|-----------------|------------------|


 Pre-Chorus
  F#m             Asus2                 F#m             Asus2
  Gtr I
  H     +E  +Q    E   +E  H       E E   H      +E  +Q     E   +Q   Q   E E Q
|-2-----(2)-(2)/--9-|-(9)-0-------0h2-|-2------(2)-(2)/---0-|-(0)--0---0-0-0--||
|-2-----(2)-(2)/--9-|-(9)-0-------0h2-|-2------(2)-(2)/---0-|-(0)-------------||
|-2-----(2)-(2)/--9-|-(9)---------0h2-|-2------(2)-(2)/-----|-----------------||
|-------------------|-----------------|---------------------|-----------------||
|-------------------|-----------------|---------------------|-----------------||
|-------------------|-----------------|---------------------|-----------------||
|
| Gtr III
|     W                H       Q  E E   Q  E E  E   E   E E   +Q   H.
|-------------------|-----------------|-2--2-2--2---2---0-0-|-(0)--0----------||
|-------------------|-----------------|-2--2-2--2---2---0-0-|-(0)--0----------||
|-------------------|-----------------|-2--2-2--2---2---2-2-|-(2)--2----------||
|-------------------|-----------------|-4--4-4--4---4---2-2-|-(2)--2----------||
|-------------------|-----------------|-4--4-4--4---4---0-0-|-(0)--0----------||
|-------------------|---------14\-2-2-|-2--2-2--2---2-------|-----------------||


 Chorus
  Eopen                                B5                           G#5
  Gtr III
  q    E +Q   Q    +Q     Q   E E  Q   Q  Q    E  E E E   E E H     E E
  |    |  |   |     |     |   | |  |   |  |    |  | | |   | | |     | |
  /    /  /   /     /     /   / /  /   /  /    /  / / /   / / /     / /

  Gtr I
  Q.   E +Q   Q    +E  E +H.           Q  E E +Q    Q     Q   Q  Q.   E
|------0-(0)-----|-------------------|------2-(2)-------|---------------|
|-------------0--|-(0)---------------|--------------4---|-4-------------|
|----------------|-----1-(1)---------|-4--4-------------|-----4---------|
|-2--------------|-------------------|------------------|--------4------|
|----------------|-------------------|------------------|---------------|
|----------------|-------------------|------------------|---------------|


                                    A5                                     Eopen
  Q   Q    E  E E E    E  E Q  Q  E E   H        E  E E E   +E  Q  E E E E E
  |   |    |  | | |    |  | |  |  | |   |        |  | | |    |  |  | | | | |
  /   /    /  / / /    /  / /  /  / /   /        /  / / /    /  /  / / / / /

  E E E E +Q    Q     +Q    Q  H        E E E E +Q    Q     +E  Q.     H
|-------0-(0)-------|-----------------|---0---0-(0)-------|------------------|
|---0-----------0---|-(0)---0---------|-2---2---------2---|-(2)--------------|
|-6-----------------|-----------------|-2-----------------|-----2------------|
|-----6-------------|----------6------|-------------------|------------2-----|
|-------------------|-----------------|-------------------|------------------|
|-------------------|-----------------|-------------------|------------------|


  H       E  E E E    E  E  E E E E  E E
  |       |  | | |    |  |  | | | |  | |
  /       /  / / /    /  /  / / / /  / /

  Q.   E +Q    Q     +E  Q.     E Q.
|------0-(0)-------|--------------0------|
|--------------0---|-(0)--------0--------|
|------------------|-----1---------------|
|-2----------------|---------------------|
|------------------|---------------------|
|------------------|---------------------|


  B5
  Q  Q    E  E E E    E  E E E E E E E
  |  |    |  | | |    |  | | | | | | |
  /  /    /  / / /    /  / / / / / / /

  Q  E E +Q    Q     +Q    Q   Q   E E
|------2-(2)-------|--------------------|
|--------------4---|-(4)-----------0----|
|-4--4-------------|-------4---------1--|
|------------------|-----------4--------|
|------------------|--------------------|
|------------------|--------------------|


  G#5                                     A5
  E E Q      E  E E E    Q   Q  E E E E   Q  Q    E  E E E   +E  E Q  E E E E
  | | |      |  | | |    |   |  | | | |   |  |    |  | | |    |  | |  | | | |
  / / /      /  / / /    /   /  / / / /   /  /    /  / / /    /  / /  / / / /

  Q     E E +Q    Q     +Q   Q  Q   E E   Q  E E +Q    Q     +W
|---------0-(0)-------|-----------------|------0-(0)-------|------------------||
|-0---------------0---|-(0)--0------0---|-2--2---------2---|-(2)--------------||
|-------1-------------|---------1-----1-|-2----------------|------------------||
|---------------------|-----------------|------------------|------------------||
|---------------------|-----------------|------------------|------------------||
|---------------------|-----------------|------------------|------------------||


 Interlude
    E       B           C#m     A         E       B           C#m     A
  E E E E E E E E    E  E E E E E E E   E E E E E E E E    E  E E E E E E E
    | | | | |   |       |   | | |   |   | |   |   |   |       |   |   | | |
    / x / x /   /       /   / x /   /   x /   /   /   /       /   /   / / /

  Gtrs II, IV, V
  Q   E E Q   E E   +Q    Q   H         Q   E E Q   E E   +Q    Q   E E E E
|-----4---------4-|-(4)---------------|-----4---------4-|-(4)---------4---4--|
|---------7-------|-------5-----------|---------7-------|-----------7---7----|
|-----------------|-------------------|-----------------|--------------------|
|-----------------|-------------------|-----------------|--------------------|
|-----------------|-------------------|-----------------|--------------------|
|-----------------|-------------------|-----------------|--------------------|


    E       B           C#m     A         E       B           C#m     A
  E E E E E E E E    E  E E E E E E E   E E E E E E E E    E  E E E E E E E
    | | | | |   |       |   | | |   |   | |   |   |   |       |   |   | | |
    / x / x /   /       /   / x /   /   x /   /   /   /       /   /   / / /

  Q   E E Q   E E   +Q    Q   H         Q   E E Q   E E   +Q    Q   E E E E
|-----4---------4-|-(4)---------------|-----4---------4-|-(4)---------4---4--|
|---------7-------|-------5-----------|---------7-------|-----------7---7----|
|-----------------|-------------------|-----------------|--------------------|
|-----------------|-------------------|-----------------|--------------------|
|-----------------|-------------------|-----------------|--------------------|
|-----------------|-------------------|-----------------|--------------------|


 Verse
  E      B         C#m   A           E      B        C#m    A
  Gtr I
  Q  E E E E E E   E Q E +E  E E E   E Q  E E Q  E   E Q  E E E E E
|----------------|-----------------|------4------2-|----------------|
|------5-------7-|-----5-(5)-----5-|---5------4----|------5-------5-|
|----4-----4-6---|---6-------4-6---|---------------|---6----6-6-----|
|----------------|-----------------|---------------|----------------|
|----------------|-----------------|---------------|----------------|
|----------------|-----------------|---------------|----------------|


  E       B        C#m   A          E      B
                                                    H      E q
                                                             |
                                                             x

  E E E E E Q  E   E Q E +E  Q  E   E Q  E E Q  E   E Q  E E E E E
|-------5------2-|----------------|------4------2-|----------------||
|---5-------4----|-----5-(5)----5-|---5------4----|------5---------||
|-----4----------|---6-------6----|---------------|---6------6---4-||
|----------------|----------------|---------------|------------7---||
|----------------|----------------|---------------|----------------||
|----------------|----------------|---------------|----------------||


 Pre-Chorus
  F#m               Asus2
  Gtr III
  Q  E E  E   E   E E   +Q    Q  Q   E E
  |  | |  |   |   | |    |    |  |   | |
  /  / /  /   /   / /    /    /  /   / /

  Gtr I
  H      +E  +Q     E   +E  H      E E H
|-2------(2)-(2)/---9-|-(9)-0------0h2-2----|
|-2------(2)-(2)/---9-|-(9)-0------0h2-2----|
|-2------(2)-(2)/---9-|-(9)--------0h2-2----|
|---------------------|---------------------|
|---------------------|---------------------|
|---------------------|---------------------|


  F#m                Asus2
   Q   E   E E  E  E E    Q   Q  E E E E
   |   |   | |  |  | |    |   |  | | | |
   /   /   / /  /  / /    /   /  / / / /

  +E  +Q     E +Q    Q    E E Q
|-(2)-(2)/---0-(0)---0--|-0-0-0----------|
|-(2)-(2)/---0-(0)------|----------------|
|-(2)-(2)/--------------|----------------|
|-----------------------|----------------|
|-----------------------|----------------|
|-----------------------|----------------|


   Chorus
    $
    E                                          B5                          G#5
    Gtr III
    q   E +Q     Q   +Q     Q     E  E Q  Q    Q  E E  E  E E E   H     E  E
    |   |  |     |    |     |     |  | |  |    |  | |  |  | | |   |     |  |
    /   /  /     /    /     /     /  / /  /    /  / /  /  / / /   /     /  /

    Gtr I
    Q.     E +Q    Q       +E  E +H.           Q  E E +Q    Q     Q  Q  Q.    E
||---------0-(0)---------|-------------------|------2-(2)-------|--------------|
||o----------------0-----|-(0)---------------|--------------4---|-4------------|
||-----------------------|-----1-(1)---------|-4--4-------------|----4---------|
||--2--------------------|-------------------|------------------|-------4------|
||o----------------------|-------------------|------------------|--------------|
||-----------------------|-------------------|------------------|--------------|


                                    A5
  Q   Q    E  E E E    E  E Q  Q  E E   H        E  E E E   +E  Q   E E E E E
  |   |    |  | | |    |  | |  |  | |   |        |  | | |    |  |   | | | | |
  /   /    /  / / /    /  / /  /  / /   /        /  / / /    /  /   / / / / /

  E E E E +Q    Q     +Q    Q  H        E E E E +Q    Q     +E  Q.    H
|-------0-(0)-------|-----------------|---0---0-(0)-------|--------------------|
|---0-----------0---|-(0)---0---------|-2---2---------2---|-(2)----------------|
|-6-----------------|-----------------|-2-----------------|-----2--------------|
|-----6-------------|----------6------|-------------------|-----------2--------|
|-------------------|-----------------|-------------------|--------------------|
|-------------------|-----------------|-------------------|--------------------|


  E
  H       E  E E E    E  E  E E E E  E E
  |       |  | | |    |  |  | | | |  | |
  /       /  / / /    /  /  / / / /  / /

  Q.   E +Q    Q     +E  Q.     E Q.
|------0-(0)-------|--------------0------|
|--------------0---|-(0)--------0--------|
|------------------|-----1---------------|
|-2----------------|---------------------|
|------------------|---------------------|
|------------------|---------------------|


  B5                                 G#5
  Q  Q    E  E E E    E  E E E E E E E
  |  |    |  | | |    |  | | | | | | |
  /  /    /  / / /    /  / / / / / / /

  Q  E E +Q    Q     +Q    Q   Q   E E
|------2-(2)-------|--------------------|
|--------------4---|-(4)-----------0----|
|-4--4-------------|-------4---------1--|
|------------------|-----------4--------|
|------------------|--------------------|
|------------------|--------------------|


                                                                     To Coda
                      A5                                                  E
  E E Q    E  E E E    Q   Q  E E E E   Q  Q    E  E E E   +E  E Q  E E E E
  | | |    |  | | |    |   |  | | | |   |  |    |  | | |    |  | |  | | | |
  / / /    /  / / /    /   /  / / / /   /  /    /  / / /    /  / /  / / / /

  Q   E E +Q    Q     +Q   Q  Q   E E   Q  E E +Q    Q     +W
|-------0-(0)-------|-----------------|------0-(0)-------|--------------------||
|-0-------------0---|-(0)--0------0---|-2--2---------2---|-(2)---------------o||
|-----1-------------|---------1-----1-|-2----------------|--------------------||
|-------------------|-----------------|------------------|--------------------||
|-------------------|-----------------|------------------|-------------------o||
|-------------------|-----------------|------------------|--------------------||


 Interlude
  F#m        A5                    F#m        A5
  Gtr III
  Q  E E E E Q    +Q   Q  Q  E E   Q  E E E E Q
|-2-------------|------0---------|-2-------------|
|-2--------0----|---------0------|-2--------0----|
|-2--------0-2--|-(2)--------2-0-|-2--------0-2--|
|-4----------2--|-(2)--------2-0-|-4----------2--|
|-4--4-4-----0--|-(0)--------0---|-4--4-4-----0--|
|-2--2-2-0------|----------------|-2--2-2-0------|


                 F#m        A5               E
                               Gtr I
  Q  Q  Q  E E   Q  E E E E Q    +H     H  E E
|----0---------|-2-------------|-------------4-||
|-------0------|-2--------0----|-------------5-||
|-2--------2-0-|-2--------0-2--|-(2)---------4-||
|-2--------2-0-|-4----------2--|-(2)---------2-||
|-0--------0---|-4--4-4-----0--|-(0)---------2-||
|--------------|-2--2-2-0------|--------x--0-0-||


  E       B         C#m         G#m       A
  +E  E E E +E  E E E   +E  E E E +E  E E E
|-(4)-4-x-7-(7)-7-x-4-|-(4)-4-x-4-(4)-4-x-5-|
|-(5)-5-x-7-(7)-7-x-5-|-(5)-5-x-4-(4)-4-x-5-|
|-(4)-4-x-8-(8)-8-x-6-|-(6)-6-x-4-(4)-4-x-6-|
|---------------------|---------------------|
|---------------------|---------------------|
|---------------------|---------------------|


          C#m                   B           E
  +E  E E E +E  E E E   +E  E E E +E  E +E  E
|-(5)-5-x-4-(4)-4-x-4-|-(4)-4-7-7-(7)-7-(7)-4--|
|-(5)-5-x-5-(5)-5-x-5-|-(5)-5-7-7-(7)-7-(7)-5--|
|-(6)-6-x-6-(6)-6-x-6-|-(6)-6---8-(8)-8-(8)-4--|
|---------------------|------------------------|
|---------------------|------------------------|
|---------------------|------------------------|


          B         C#m         G#m         A
  +E  E E E +E  E E E   +E  E E E +E  E  E  E
|-(4)-4-x-7-(7)-7-4-4-|-(4)-4-x-4-(4)-4-(5)-5-|
|-(5)-5-x-7-(7)-7-x-5-|-(5)-5-x-4-(4)-4-----5-|
|-(4)-4-x-8-(8)-8-x-6-|-(6)-6-x-4-(4)-4-----6-|
|---------9-(9)-------|-----------------------|
|---------------------|-----------------------|
|---------------------|-----------------------|


                             D.S. al Coda
          C#m                   B
  +E  E E E +E  E E E   +E  E E E +E  Q  E
|-(5)-5-x-4-(4)-4-x-4-|-(4)-4-x-7-(7)-7--7--||
|-(5)-5-x-5-(5)-5-x-5-|-(5)-5-x-7-(7)-7--7--||
|-(6)-6-0-6-(6)-6-x-6-|-(6)-6-x-8-(8)-8--8--||
|---------------------|---------9-(9)-9--9--||
|---------------------|---------------------||
|---------------------|---------------------||


 Interlude
  &
    E       B           C#m     A         E       B           C#m     A
  E E E E E E E E    E  E E E E E E E   E E E E E E E E    E  E E E E E E E
    | | | | |   |       |   | | |   |   | |   |   |   |       |   |   | | |
    / x / x /   /       /   / x /   /   x /   /   /   /       /   /   / / /

  Gtrs II, IV, V
  Q   E E Q   E E   +Q    Q   H         Q   E E Q   E E   +Q    Q   E E E E
|-----4---------4-|-(4)---------------|-----4---------4-|-(4)---------4---4--|
|---------7-------|-------5-----------|---------7-------|-----------7---7----|
|-----------------|-------------------|-----------------|--------------------|
|-----------------|-------------------|-----------------|--------------------|
|-----------------|-------------------|-----------------|--------------------|
|-----------------|-------------------|-----------------|--------------------|


    E       B           C#m     A         E       B           C#m     A
  E E E E E E E E    E  E E E E E E E   E E E E E E E E    E  E E E E E E E
    | | | | |   |       |   | | |   |   | |   |   |   |       |   |   | | |
    / x / x /   /       /   / x /   /   x /   /   /   /       /   /   / / /

  Q   E E Q   E E   +Q    Q   H         Q   E E Q   E E   +Q    Q   E E E E
|-----4---------4-|-(4)---------------|-----4---------4-|-(4)---------4---4--|
|---------7-------|-------5-----------|---------7-------|-----------7---7----|
|-----------------|-------------------|-----------------|--------------------|
|-----------------|-------------------|-----------------|--------------------|
|-----------------|-------------------|-----------------|--------------------|
|-----------------|-------------------|-----------------|--------------------|


  E       B         C#m    A        E       B         C#m    A
  Gtr I
  E E E E E E E E   E Q  E E Q  E   E E E E E E E E   E Q  E E Q  E
|-------4-------2-|---------------|-------4-------2-|----------------|
|-----5-----4-----|------5------5-|-----5-----4-----|------5------5--|
|---4---------4---|---6------6----|---4---------4---|---6------6-----|
|-----------------|---------------|-----------------|----------------|
|-----------------|---------------|-----------------|----------------|
|-----------------|---------------|-----------------|----------------|


  E       B         C#m       A        E       B         C#m       A
  Gtr I
  E E E E E Q   E    E  Q   E Q  E E   E E E E E Q   E    E  Q   E E Q   E
|-------4-------2-|------------------|-------4-------1-|--------------------||
|---5-------4-----|---------5------5-|---5-------4-----|---------5-------5--||
|-----4-----------|-----6------------|-----4-----------|-----6-------6------||
|-----------------|------------------|-----------------|--------------------||
|-----------------|------------------|-----------------|--------------------||
|-----------------|------------------|-----------------|--------------------||
|
| Gtrs II, IV, V
|                                                                  >
| Q   E E Q   E E   +Q    Q   H        Q   E E Q   E E   +Q    Q   E E E E
|-----4---------4-|-(4)--------------|-----4---------4-|-(4)---------4------||
|---------7-------|-------5----------|---------7-------|-----------7---7-5--||
|-----------------|------------------|-----------------|--------------------||
|-----------------|------------------|-----------------|--------------------||
|-----------------|------------------|-----------------|--------------------||
|-----------------|------------------|-----------------|--------------------||


 Outro
               (A)                       (B)
  Gtr I
     Wx4           W      H    E E E E       W      H    Q  E E
|------------|----------|------5p4-----|----------|------7-------|
|------------|----------|------------5-|----------|-----------5--|
|------------|----------|--------------|----------|--------------|
|------------|----------|--------------|----------|--------------|
|------------|----------|--------------|----------|--------------|
|------------|----------|--------------|----------|--------------|


  (E)                           (B)
  E E Q  H      E E Q  E E Q    Q  E E E E E E
|-------------|---------------|----------------|
|---5---------|-5------7------|------5---5---5-|
|-------------|---------------|----------------|
|-------------|---------------|----------------|
|-------------|---------------|----------------|
|-------------|---------------|----------------|


                    (A)
  E E E E E E E E   E E Q  E E E E   Q  E E Q  E E
|-------4---------|----------------|------5--------|
|---5-------5---5-|---5----5-5---5-|-------------7-|
|-----------------|----------------|---------------|
|-----------------|----------------|---------------|
|-----------------|----------------|---------------|
|-----------------|----------------|---------------|


                                      (A)
  E E E E E E E E   E E E E E E E E   E E E E Q  Q     W
|-------4---4-----|-------4---------|---------------|-----|
|---7-----------7-|---7-------5---5-|-----5---5-----|-----|
|-----------------|-----------------|-4h6---4-------|-----|
|-----------------|-----------------|---------------|-----|
|-----------------|-----------------|---------------|-----|
|-----------------|-----------------|---------------|-----|
comments
We did not receive enough feedback on this tab! Please rate:
print report bad tab
1 2 3 4 5
I want to post or [tab]
guest
You may want to rate the tab now too:
select rating
Please do not post tabs as comments. Select "correction" instead!