Oops, an error
Loading. Please wait.

Killing Floor Tab

2,530 views 6 this week
no commentswrite comment
1 2 3 4 5
please rate
Autoscroll
+/-
esc
set tempo
stop
Contributor
Hey! There's an official Ultimate Guitar app which is ideal
for learning songs when you're away from computer. Get the app
WARNING: You are trying to view
                                    content from Ultimate-Guitar.com
                                    in an unauthorized application,
                                    which is prohibited.

                                    Please use an official Ultimate
                                    Guitar Tabs application for iPhone,
                                    iPad or Android to access legitimate
                                    chords, guitar, bass, and drum tabs
                                    from Ultimate-Guitar.com database.

                                    Type "ultimate guitar tabs" in Apple
                                    App Store's or Android Market's
                                    search to find the application.
-------------------------------------------------------------------------------
                         KILLING FLOOR – Electric Flag
                               (Chester Burnett)
                           A Long Time Comin’ [1967]
-------------------------------------------------------------------------------



Tuning: standard


    Recitation                       Laughter & applause
                                      ~~~~~~~~~~~~~~~~~~~~
                                     (E)
e|--------------------------------|------------------------------|
B|--------------------------------|------------------------------|
G|--------------------------------|------------------------------|
D|--------------------------------|------------------------------|
A|--------------------------------|--/7--------------------------|
E|--------------------------------|------------------------------|
 |                                    ~~~~~~~~~~~~~~~~~~~~
e|--------------------------------|------------------------------|
B|--------------------------------|------------------------------|
G|--------------------------------|--/9--------------------------|
D|--------------------------------|------------------------------|
A|--------------------------------|------------------------------|
E|--------------------------------|------------------------------|


       ~~~~~~~~~~~~~~~~~~~~           ~~~~~~~~~~~~~~~~~~~~

e|--------------------------------|------------------------------|
B|--------------------------------|------------------------------|
G|--------------------------------|------------------------------|
D|--------------------------------|------------------------------|
A|----/7--------------------------|--/7----------------------7\--|
E|--------------------------------|------------------------------|
 |     ~~~~~~~~~~~~~~~~~~~~           ~~~~~~~~~~~~~~~~~~~~
e|--------------------------------|------------------------------|
B|----/9--------------------------|------------------------------|
G|--------------------------------|--/4--------------------------|
D|--------------------------------|------------------------------|
A|--------------------------------|------------------------------|
E|--------------------------------|------------------------------|
     Fade in with volume control    fade in



                                     Drum fill
e|--------------------------------|------------------------------|
B|--------------------------------|------------------------------|
G|--------------------------------|------------------------------|
D|--------------------------------|------------------------------|
A|--------------------------------|------------------------------|
E|----0---------------------------|------------------------------|
 |         ~~~~~~~~~~~~~~~~
e|--------------------------------|------------------------------|
B|--------15----------------------|------------------------------|
G|--------------------------------|------------------------------|
D|--------------------------------|------------------------------|
A|--------------------------------|------------------------------|
E|--------------------------------|------------------------------|
          fade in



      Eadd2            C9   C#9   D9
e|----12----(12)\------3----4--|--5------------------------|
B|----9-----(9)\-------3----4--|--5------------------------|
G|----11----(11)\--------------|--5------------------------|
D|-----------------------------|---------------------------|
A|-----------------------------|---------------------------|
E|-----------------------------|---------------------------|
 |
e|-----------------------------|---------------------------|
B|-----------------------------|---------------------------|
G|-----------------------------|---------------------------|
D|-----------------------------|---------------------------|
A|-----------------------------|---------------------------|
E|-----------------------------|---------------------------|



          A(type3)                        A(type2)
e|--------9--9-----9--9-----9--9-------|--5----5-5----5-5----5-5------|
B|--------10-10----10-10----10-10------|--5----5-5----5-5----5-5------|
G|--------9--9-----9--9-----9--9-------|--6----6-6----6-6----6-6------|
D|-------------------------------------|------------------------------|
A|-------------------------------------|------------------------------|
E|-------------------------------------|------------------------------|
 |            ~~~~~~~~~~~~~~
e|-----------------------------5-------|------------------------------|
B|--8b10----(10)------------------8-5--|------------------------------|
G|-------------------------------------|--5b6-------------------------|
D|-------------------------------------|---------7-----------5h7---7--|
A|-------------------------------------|------------------------------|
E|-------------------------------------|------------------------------|



      A(type3)                            A(type2)
e|----9-----9--9-----9--9-----9--9-----|--5----5-5----5-5----5-5----|
B|----10----10-10----10-10----10-10----|--5----5-5----5-5----5-5----|
G|----9-----9--9-----9--9-----9--9-----|--6----6-6----6-6----6-6----|
D|-------------------------------------|----------------------------|
A|-------------------------------------|----------------------------|
E|-------------------------------------|----------------------------|
 |         ~~~~~~~~~~~~~~                   ~~~~~~~~~~~~~~
e|-------------------------------5-----|------------------8-9-10p9--|
B|--------5--------------------5----5--|-8/10-----------------------|
G|--5h6--------------------------------|----------------------------|
D|-------------------------------------|----------------------------|
A|-------------------------------------|----------------------------|
E|-------------------------------------|----------------------------|



      D7
e|----8----8-8----8-8----8-8----|--8----8-8----8-8----8-8----|
B|----7----7-7----7-7----7-7----|--7----7-7----7-7----7-7----|
G|----7----7-7----7-7----7-7----|--7----7-7----7-7----7-7----|
D|------------------------------|----------------------------|
A|------------------------------|----------------------------|
E|------------------------------|----------------------------|
 |             ~~~~~~~~~~~
e|----10-8-----------------8b9--|-(9)----10---10b11---10b12--|
B|---------10-10----------------|----------------------------|
G|------------------------------|----------------------------|
D|------------------------------|----------------------------|
A|------------------------------|----------------------------|
E|------------------------------|----------------------------|



      A(type3)                            A(type2)
e|----9-----9--9-----9--9-----9--9--7--|--5----5-5----5-5----5-5----|
B|----10----10-10----10-10----10-10-7--|--5----5-5----5-5----5-5----|
G|----9-----9--9-----9--9-----9--9--7--|--6----6-6----6-6----6-6----|
D|-------------------------------------|----------------------------|
A|-------------------------------------|----------------------------|
E|-------------------------------------|----------------------------|
 |                   ~~~~~~~~~~~~~~
e|----10b12r10p8--------------------8--|-(8)b9----(9)\-----------5--|
B|---------------10-10-----------------|---------------------5-7----|
G|-------------------------------------|----------------------------|
D|-------------------------------------|----------------------------|
A|-------------------------------------|----------------------------|
E|-------------------------------------|----------------------------|






     |-pm-|        |-pm-|           |-pm-|        |-pm-|
      E                              D7
e|--------------------------------|---------8---8---------8------|
B|-----------9---9---------9---9--|---------7---7---------7------|
G|-----------9---9---------9---9--|---------7---7---------7------|
D|-----------9---9---------9---9--|---------7---7---------7------|
A|--------------------------------|------------------------------|
E|----7---7---------7---7---------|--5---5---------5---5---------|
 |
e|----7b9---7b9--5h7p5---5---5----|--5--5--------8--8--10p9------|
B|---------------------7---7---5--|--------8/10--------------10--|
G|--------------------------------|------------------------------|
D|--------------------------------|------------------------------|
A|--------------------------------|------------------------------|
E|--------------------------------|------------------------------|



      A(type3)                            E7#9
e|----9-----9--9-----9--9-----9--9-----|------------------------------|
B|----10----10-10----10-10----10-10----|--x--/8-8-8-8----8----8-8--8--|
G|----9-----9--9-----9--9-----9--9-----|--x--/7-7-7-7----7----7-7--7--|
D|-------------------------------------|--x--/6-6-6-6----6----6-6--6--|
A|-------------------------------------|-----/7-7-7-7----7----7-7--7--|
E|-------------------------------------|------------------------------|
 |     ~~~~~~~~~~~~~~~~~~~~                           ~~~~~~~~~~~~~~~~
e|-------------------------------------|------------------------------|
B|----10------10------10-------10\5/12-|-\5/-----8-8--8---------8-----|
G|-------------------------------------|------/9----------------------|
D|-------------------------------------|------------------------------|
A|-------------------------------------|------------------------------|
E|-------------------------------------|------------------------------|

    Verse 1

      A(type3)                             A(type2)
e|----9-----9--9-----9--9-----9--9---7--|--5----5-5----5-5------5----7--|
B|----10----10-10----10-10----10-10--7--|--5----5-5----5-5----5-5----7--|
G|----9-----9---9----9--9-----9--9---7--|--6----6-6----6-6--6-6-6----7--|
D|--------------------------------------|----------------7--7-----------|
A|--------------------------------------|-------------------------------|
E|--------------------------------------|-------------------------------|
 |
e|--------------------------------------|-------------------------------|
B|--------------------------------------|-------------------------------|
G|--------------------------------------|-------------------------------|
D|--------------------------------------|-------------------------------|
A|--------------------------------------|-------------------------------|
E|--------------------------------------|-------------------------------|



      A(type3)                             A(type2)
e|----9-----9--9-----9--9-----9--9---7--|--5-----5-5-----5-5-----5-5--7--|
B|----10----10-10----10-10----10-10--7--|--5-----5-5-----5-5-----5-5--7--|
G|----9-----9---9----9--9-----9--9---7--|--6-----6-6-----6-6-----6-6--7--|
D|--------------------------------------|--------------------------------|
A|--------------------------------------|--------------------------------|
E|--------------------------------------|--------------------------------|
 |
e|--------------------------------------|--5-------------------------8---|
B|----------------------8b10-----8b10r8-|----8-5--------5-5h8p5--8p5-----|
G|--------------------------------------|---------x-7b9------------------|
D|--------------------------------------|--------------------------------|
A|--------------------------------------|--------------------------------|
E|--------------------------------------|--------------------------------|



      D                                     D(type3)
e|----14----14-14----14-14----14-14--12--|--10----10-10----10-10----10-5--7--|
B|----15----15-15----15-15----15-15--12--|--10----10-10----11-11----10-5--7--|
G|----14----14-14----14-14----14-14--12--|--11----11-11----11-11----11-6--7--|
D|---------------------------------------|-----------------------------------|
A|---------------------------------------|-----------------------------------|
E|---------------------------------------|-----------------------------------|
 |             bss
e|----5--------8-------------------------|-----------------------------------|
B|---------------------------------------|-----------------------------------|
G|---------------------------------------|-----------------------------------|
D|---------------------------------------|-----------------------------------|
A|---------------------------------------|-----------------------------------|
E|---------------------------------------|-----------------------------------|



      A(type3)                             A(type2)
e|----9-----9--9-----9--9-----9--9---7--|--5-----5-5-----5-5-----5-5--7--|
B|----10----10-10----10-10----10-10--7--|--5-----5-5-----5-5-----5-5--7--|
G|----9-----9--9-----9--9-----9--9---7--|--6-----6-6-----6-6-----6-6--7--|
D|--------------------------------------|--------------------------------|
A|--------------------------------------|--------------------------------|
E|--------------------------------------|--------------------------------|
 |                                          ~~~~~~
e|-------------10b12-------------10b11--|--------------------------------|
B|--------------------------------------|--10----(10)\-----------5h8-5---|
G|--------------------------------------|-------------------x------------|
D|--------------------------------------|-------------------x------------|
A|--------------------------------------|-------------------x------------|
E|--------------------------------------|--------------------------------|


     |-pm -|        |-pm -|         |-pm -|           pm
      E                              D7
e|--------------------------------|---------8----x-8------8-----|
B|-----------9----x---------9-----|---------7----x-7------7--x--|
G|-----------9----x---------9-----|---------7----x-7------7--x--|
D|-----------9----x---------9-----|---------7----x-7------7--x--|
A|--------------------------------|-----------------------------|
E|----7---7----------7---7--------|--5---5------------5---------|
 |                                         ~~~~~~~~~~~~~~
e|--------------------------------|-----------------------------|
B|---(5)----------------8b12-8b10-|-(10)-(10)----------(10)\----|
G|--------------------------------|-----------------------------|
D|--------------------------------|-----------------------------|
A|--------------------------------|-----------------------------|
E|--------------------------------|-----------------------------|


     |-pm -|                                        pm
      A(type2)                       E7#9
e|------------5----5-x-----5------|---------------------------|
B|------------5----5-x-----5------|----8--8-8----8------8-----|
G|------------6----6-x-----6------|--x-7--7-7----7----x-7--x--|
D|--------------------------------|--x-6--6-6----6----x-6--x--|
A|----0---0-------------0---------|--x-7--7-7----7----x-7--x--|
E|--------------------------------|-----------------7---------|
 |
e|--------------------------------|---------------------------|
B|---------8b10-8b10------5-8p5---|---------------------x-----|
G|--------------------7b9-------5-|--7-5-7b9------------x-----|
D|--------------------------------|---------------------------|
A|--------------------------------|---------------------------|
E|--------------------------------|---------------------------|

    Verse 2

      A(type2)                      A(type2)
e|----5--x-x-5--x-x-5--x-x-5--2--|--0--x-x-0--x-x-0--x-x-0--x--|
B|----5--x-x-5--x-x-5--x-x-5--3--|--2--x-x-2--x-x-2--x-x-2--x--|
G|----6--x-x-6--x-x-6--x-x-6-----|--2--x-x-2--x-x-2--x-x-2--x--|
D|-------------------------------|-----------------------------|
A|-------------------------------|-----------------------------|
E|-------------------------------|-----------------------------|
 |
e|-------------------------------|-----------------------------|
B|--------------------------10---|--12b14----------------------|
G|---------------------9/11------|-----------------------------|
D|-------------------------------|-----------------------------|
A|-------------------------------|-----------------------------|
E|-------------------------------|-----------------------------|



      A(type2)                      A(type2)
e|----5--x-x-5--x-x-5--x-x-5--2--|--0--x-x-0--x-x-0--x-x-0--x--|
B|----5--x-x-5--x-x-5--x-x-5--3--|--2--x-x-2--x-x-2--x-x-2--x--|
G|----6--x-x-6--x-x-6--x-x-6-----|--2--x-x-2--x-x-2--x-x-2--x--|
D|-------------------------------|-----------------------------|
A|-------------------------------|-----------------------------|
E|-------------------------------|-----------------------------|
 |                                                   ~~~~~~
e|------------------------10-----|-----------------------------|
B|----------/12--(12)b14------13-|--12p10-----10-12/14---------|
G|-------------------------------|---------11------------------|
D|-------------------------------|-----------------------------|
A|-------------------------------|-----------------------------|
E|-------------------------------|-----------------------------|



      D7(type5)                           D7(type4)
e|----10-x-x--10-x-x-x--10-x-x--10-----|--10-x-x--10-x-x--10-x-x--10--x--|
B|----13-x-x--13-x-x-x--13-x-x--13--8--|--7--x-x--7--x-x--7--x-x--7---x--|
G|----11-x-x--11-x-x-x--11-x-x--11--9--|--7--x-x--7--x-x--7--x-x--7---x--|
D|-------------------------------------|---------------------------------|
A|-------------------------------------|---------------------------------|
E|-------------------------------------|---------------------------------|
 |                                                  ~~~~~~~~~~~~~~
e|---------------------------10b11-----|--r10-9--------------------------|
B|-------------------------------------|--------10-10-----------(10)\----|
G|-------------------------------------|---------------------------------|
D|-------------------------------------|---------------------------------|
A|-------------------------------------|---------------------------------|
E|-------------------------------------|---------------------------------|



      A(type3)                             A(type2)
e|----9-----9--9-----9--9-----9--9--7---|--5----5-5----5-5----5--5--5--x--|
B|----10----10-10----10-10----10-10-7---|--5----5-5----5-5----5--5--5--x--|
G|----9-----9--9-----9--9-----9--9--7---|--6----6-6----6-6----6--6--6--x--|
D|--------------------------------------|---------------------------------|
A|--------------------------------------|---------------------------------|
E|--------------------------------------|---------------------------------|
 |                ~~~~~~~~~~~~
e|------------------------------5-------|----------------5---5------------|
B|-------------8b10---------------8p5---|--5---------5--------------------|
G|------------------------------------7-|------5/6------------------------|
D|--------------------------------------|---------------------------------|
A|--------------------------------------|---------------------------------|
E|--------------------------------------|---------------------------------|



          E                                D(type2)
e|--------7--7----x--7----7-7----7--|------5--5------5------5-5----5--|
B|--------9--9----x--9----9-9----9--|------7--7------7------7-7----7--|
G|--------9--9----x--9----9-9----9--|------7--7------7------7-7----7--|
D|----------------------------------|---------------------------------|
A|----------------------------------|---------------------------------|
E|----------------------------------|---------------------------------|
 |                                                   ~~~~~
e|----------------------------------|--------8------------------------|
B|----------------------------------|------8-----10-10--(10)/17-------|
G|----------------------------------|--7/9----------------------------|
D|----------------------------------|---------------------------------|
A|----------------------------------|---------------------------------|
E|----------------------------------|---------------------------------|



      A7                              E7#9
e|----x------------------------|-----------------------------|
B|----x--5--5--x--5----5-5--5--|------8--8-8----8--8-8-8--8--|
G|----x--6--6--x--6----6-6--6--|------7--7-7----7--7-7-7--7--|
D|-------5--5--x--5----5-5--5--|------6--6-6----6--6-6-6--6--|
A|-----------------------------|------7--7-7----7--7-7-7--7--|
E|-----------------------------|-----------------------------|
 |               ~~~~~              ~~~
e|--------------------------5--|------------------------5----|
B|------8b10--(10)---8b10r8--8-|--5-5--/17------------5---5--|
G|-----------------------------|-----------------------------|
D|-----------------------------|-----------------------------|
A|-----------------------------|-----------------------------|
E|-----------------------------|-----------------------------|

    Guitar solo

          A7add2
e|--------5-5--5-5----5----5----5--|------5-5--5-5----5----5----5--|
B|--------2-2--2-2----2----2----2--|------2-2--2-2----2----2----2--|
G|--------4-4--4-4----4----4----4--|------4-4--4-4----4----4----4--|
D|--------5-5--5-5----5----5----5--|------5-5--5-5----5----5----5--|
A|---------------------------------|-------------------------------|
E|---------------------------------|-------------------------------|
 |                  hold bend
e|------7b9------7b9--------r7\5---|------7b10-(10)--7b10--5h7p5---|
B|---------------------------------|-----------------------------7-|
G|---------------------------------|-------------------------------|
D|---------------------------------|-------------------------------|
A|---------------------------------|-------------------------------|
E|---------------------------------|-------------------------------|


          A7add2
e|--------5-5--5-5----5----5----5--|------5-5--5-5----5----5----5--|
B|--------2-2--2-2----2----2----2--|------2-2--2-2----2----2----2--|
G|--------4-4--4-4----4----4----4--|------4-4--4-4----4----4----4--|
D|--------5-5--5-5----5----5----5--|------5-5--5-5----5----5----5--|
A|---------------------------------|-------------------------------|
E|---------------------------------|-------------------------------|
 |                    ~~~~~~~
e|----5-----5--5-------------------|-----------8--9---10p9---10p9--|
B|-------5--------8/10------(10)\--|------/10----------------------|
G|---------------------------------|-------------------------------|
D|---------------------------------|-------------------------------|
A|---------------------------------|-------------------------------|
E|---------------------------------|-------------------------------|



          D9
e|--------5-5--5-5----5----5----5--|------5-5--5-5----5----5----5--|
B|--------5-5--5-5----5----5----5--|------5-5--5-5----5----5----5--|
G|--------5-5--5-5----5----5----5--|------5-5--5-5----5----5----5--|
D|--------4-4--4-4----4----4----4--|------4-4--4-4----4----4----4--|
A|--------5-5--5-5----5----5----5--|------5-5--5-5----5----5----5--|
E|---------------------------------|-------------------------------|
 |                   ~~~~~~
e|----10b12----8b9-----------------|------12b14---------r12-10-----|
B|-----------------10-10-(10)-/19--|---------------------------13--|
G|---------------------------------|-------------------------------|
D|---------------------------------|-------------------------------|
A|---------------------------------|-------------------------------|
E|---------------------------------|-------------------------------|



          A7add2
e|--------5-5--5-5----5----5----5--|------5-5--5-5----5----5----5--|
B|--------2-2--2-2----2----2----2--|------2-2--2-2----2----2----2--|
G|--------4-4--4-4----4----4----4--|------4-4--4-4----4----4----4--|
D|--------5-5--5-5----5----5----5--|------5-5--5-5----5----5----5--|
A|---------------------------------|-------------------------------|
E|---------------------------------|-------------------------------|
 |                    ~~~~~~~~
e|---------------------------------|---------12-14-15-12-14-15p14--|
B|----10------10--12b14----(14)\---|-----/14-----------------------|
G|--------11-----------------------|-------------------------------|
D|---------------------------------|-------------------------------|
A|---------------------------------|-------------------------------|
E|---------------------------------|-------------------------------|



          E9                              D9
e|--------7--7-7--7--7--x-7----7--|-------5--5-5---5---5---x-5-----5---|
B|--------7--7-7--7--7--x-7----7--|-------5--5-5---5---5---x-5-----5---|
G|--------7--7-7--7--7--x-7----7--|-------5--5-5---5---5---x-5-----5---|
D|--------6--6-6--6--6--x-6----6--|-------4--4-4---4---4---x-4-----4---|
A|--------7--7-7--7--7--x-7----7--|-------5--5-5---5---5---x-5-----5---|
E|--------------------------------|------------------------------------|
 |          ~~~~~~~~~~~
e|------15b17--------(17)--15-12--|------------------------------------|
B|--------------------------------|----15b17-15-13-15--15b16-15p13-15--|
G|--------------------------------|------------------------------------|
D|--------------------------------|------------------------------------|
A|--------------------------------|------------------------------------|
E|--------------------------------|------------------------------------|



          A7add2                                E7#9
e|--------5---5--5---5---5---x--5-----5--|------------------------------|
B|--------2---2--2---2---2---x--2-----2--|------8--8-8--x--8--8-8----x--|
G|--------4---4--4---4---4---x--4-----4--|------7--7-7--x--7--7-7----x--|
D|--------5---5--5---5---5---x--5-----5--|------6--6-6--x--6--6-6----x--|
A|---------------------------------------|------7--7-7--x--7--7-7----x--|
E|---------------------------------------|------------------------------|
 |
e|---------------------------------------|------------------------------|
B|----13-15-15b16r15p13--15--13--15--13--|--15p13-----------------------|
G|---------------------------------------|---------14-------------------|
D|---------------------------------------|-------------14-14-(14)\------|
A|---------------------------------------|------------------------------|
E|---------------------------------------|------------------------------|



      A(type3)                        A(type2)
e|----x--9--9--9---9-----9-----9---|--x--5--5--5---5-----5-----5--|
B|----x--10-10-10--10----10----10--|--x--5--5--5---5-----5-----5--|
G|----x--9--9--9---9-----9-----9---|--x--6--6--6---6-----6-----6--|
D|---------------------------------|------------------------------|
A|---------------------------------|------------------------------|
E|---------------------------------|------------------------------|
 |                                     ~~~~~~~~~~~      bss
e|---------------------------------|------------------------------|
B|---------------------------------|------------------------------|
G|----14b15------------(15)r14p12--|--14------------13--(13)--15--|
D|---------------------------------|------------------------------|
A|---------------------------------|------------------------------|
E|---------------------------------|------------------------------|



      A(type3)                        A(type2)
e|----x--9--9--9---9-----9-----9---|--x--5--5--5---5-----5-----5--|
B|----x--10-10-10--10----10----10--|--x--5--5--5---5-----5-----5--|
G|----x--9--9--9---9-----9-----9---|--x--6--6--6---6-----6-----6--|
D|---------------------------------|------------------------------|
A|---------------------------------|------------------------------|
E|---------------------------------|------------------------------|
 |                                          ~~~~~~
e|---------------------------------|------------------------------|
B|------15b17--(17)------15b17r15--|--p12--------------13\7-------|
G|---------------------------------|-------14--14-----------------|
D|---------------------------------|------------------------------|
A|---------------------------------|------------------------------|
E|---------------------------------|------------------------------|



          D7
e|--------8--8--8--8-----8-----8--|------8--8--8---8-----8-----8--|
B|--------7--7--7--7-----7-----7--|------7--7--7---7-----7-----7--|
G|--------7--7--7--7-----7-----7--|------7--7--7---7-----7-----7--|
D|--------7--7--7--7-----7-----7--|------7--7--7---7-----7-----7--|
A|--------------------------------|-------------------------------|
E|--------------------------------|-------------------------------|
 |                           ~~~~~~~~~
e|-----------x-----10---8---------|--------------8-10--8-10-8-10--|
B|-----------x--------------10----|--(10)\7/10--------------------|
G|--------------------------------|-------------------------------|
D|--------------------------------|-------------------------------|
A|--------------------------------|-------------------------------|
E|--------------------------------|-------------------------------|



          A(type3)                              A(type2)
e|--------9----9--9----9------9------9---|------5---5--5---5-----5-----5--|
B|--------10---10-10---10-----10-----10--|------5---5--5---5-----5-----5--|
G|--------9----9--9----9------9------9---|------6---6--6---6-----6-----6--|
D|---------------------------------------|--------------------------------|
A|---------------------------------------|--------------------------------|
E|---------------------------------------|--------------------------------|
 |                                                             ~~~~~  
e|----10b12r10--8-10-8b9--10-10b12r10p8--|--10b12--10p9--------------8\2--|
B|---------------------------------------|--------------10-10-10----------|
G|---------------------------------------|--------------------------------|
D|---------------------------------------|--------------------------------|
A|---------------------------------------|--------------------------------|
E|---------------------------------------|--------------------------------|



          E7                              D7
e|--------10--10-10--10----10----10--|----8----8---8----8-----8-----8--|
B|--------9---9--9---9-----9-----9---|----7----7---7----7-----7-----7--|
G|--------9---9--9---9-----9-----9---|----7----7---7----7-----7-----7--|
D|--------9---9--9---9-----9-----9---|----7----7---7----7-----7-----7--|
A|-----------------------------------|---------------------------------|
E|-----------------------------------|---------------------------------|
 |
e|--------7b8--7b8--7b8--7b10--7b9---|--7b9r7--5-----------------------|
B|-----------------------------------|-----------8p5-------------------|
G|-----------------------------------|---------------8\7-7b8--7p5-7-7--|
D|-----------------------------------|---------------------------------|
A|-----------------------------------|---------------------------------|
E|-----------------------------------|---------------------------------|



          A(type2)                         E7#9
e|--------5--5---5---5-----5-----5--|---------------------------------|
B|--------5--5---5---5-----5-----5--|------8-8--8-8--8--8-8-8-8----8--|
G|--------6--6---6---6-----6-----6--|------7-7--7-7--7--7-7-7-7----7--|
D|----------------------------------|------6-6--6-6--6--6-6-6-6----6--|
A|----------------------------------|------7-7--7-7--7--7-7-7-7----7--|
E|----------------------------------|---------------------------------|
 |     ~~~~    rake
e|----------------5-----------------|------------------------5-----5--|
B|----------------5--8--5----5---5--|-----/5--5--5--5-----5-----5-----|
G|----5--------(5)---------8---8----|------------------8--------------|
D|------------(5)-------------------|---------------------------------|
A|----------0-----------------------|---------------------------------|
E|----------------------------------|---------------------------------|



          A7(type4)                       A7
e|--------5--5--5---5---x--5----5--|-------------------------------|
B|--------8--8--8---8---x--8----8--|------5--5--5---5---x--5----5--|
G|--------6--6--6---6---x--6----6--|------6--6--6---6---x--6----6--|
D|---------------------------------|------5--5--5---5---x--5----5--|
A|---------------------------------|-------------------------------|
E|---------------------------------|-------------------------------|
 |                                                        hold bend
e|--------8b9----------------------|------------10b12---x-10b12----|
B|----10---------------------------|-------------------------------|
G|---------------------------------|-------------------------------|
D|---------------------------------|-------------------------------|
A|---------------------------------|-------------------------------|
E|---------------------------------|-------------------------------|



          A7(type2)                       A7
e|--------5--5--5---5---x--5----5--|-------------------------------------|
B|--------8--8--8---8---x--8----8--|------5---5---5----5----x---5-----5--|
G|--------6--6--6---6---x--6----6--|------6---6---6----6----x---6-----6--|
D|---------------------------------|------5---5---5----5----x---5-----5--|
A|---------------------------------|-------------------------------------|
E|---------------------------------|-------------------------------------|
 |  ------------------------------------------- ~~~~  hb ~~~~     bss
e|---(12)--------------------------|-(12)----(12)---10b12--(12)-10b11----|
B|---------------------------------|-------------------------------------|
G|---------------------------------|-------------------------------------|
D|---------------------------------|-------------------------------------|
A|---------------------------------|-------------------------------------|
E|---------------------------------|-------------------------------------|



          D7(type2)                      
e|--------8--8--8---8---x--8----8---|------8--8--8---8---x--8----8---|
B|--------10-10-10--10--x--10---10--|------10-10-10--10--x--10---10--|
G|--------11-11-11--11--x--11---11--|------11-11-11--11--x--11---11--|
D|----------------------------------|--------------------------------|
A|----------------------------------|--------------------------------|
E|----------------------------------|--------------------------------|
 |    gradual release ------------------       ~~~~~~~~~~~~~~~~~~~
e|---(11)---------------------------|--10---8---------------------8--|
B|----------------------------------|----(0)--10---------------------|
G|----------------------------------|--------------------------------|
D|----------------------------------|--------------------------------|
A|----------------------------------|--------------------------------|
E|----------------------------------|--------------------------------|



          A7(type2)                       A7
e|--------5--5--5---5---x--5----5--|-------------------------------|
B|--------8--8--8---8---x--8----8--|------5--5--5---5---x--5----5--|
G|--------6--6--6---6---x--6----6--|------6--6--6---6---x--6----6--|
D|---------------------------------|------5--5--5---5---x--5----5--|
A|---------------------------------|-------------------------------|
E|---------------------------------|-------------------------------|
 |    gradual bend -----------------------| ~~~~~
e|----8b9--------------------------|-(9)--(9)-----------------x-5--|
B|---------------------------------|----------------/7--5--7-------|
G|---------------------------------|--------------x----------------|
D|---------------------------------|-------------------------------|
A|---------------------------------|-------------------------------|
E|---------------------------------|-------------------------------|



          E7(type2)                        D7(type2)
e|--------10-10-10--10--x--10---10--|------8---8---8----8----x--8-----8---|
B|--------12-12-12--12--x--12---12--|------10--10--10---10---x--10----10--|
G|--------13-13-13--13--x--13---13--|------11--11--11---11---x--11----11--|
D|----------------------------------|-------------------------------------|
A|----------------------------------|-------------------------------------|
E|----------------------------------|-------------------------------------|
 |
e|-----8b9----8b9----8b9----8b10----|--8b10---8b10---8b10r8-8b10--8h10p8--|
B|----------------------------------|-------------------------------------|
G|----------------------------------|-------------------------------------|
D|----------------------------------|-------------------------------------|
A|----------------------------------|-------------------------------------|
E|----------------------------------|-------------------------------------|



          A7(type2)                       E7#9
e|--------9--9--9---9---x--9----9--|------------------------------------|
B|--------8--8--8---8---x--8----8--|------x--8-8--8-8--8--8--8-8--8--8--|
G|--------9--9--9---9---x--9----9--|------x--7-7--7-7--7--7--7-7--7--7--|
D|---------------------------------|------x--6-6--6-6--6--6--6-6--6--6--|
A|---------------------------------|------x--7-7--7-7--7--7--7-7--7--7--|
E|---------------------------------|------------------------------------|
 |              ~~~~~  ~~~~~                          ~~~~~~~~~~~~~~~~
e|-------8-------------------------|------------------------------------|
B|----10---10--10-----10-----10\---|-----------x--8--8------------------|
G|---------------------------------|-----/4/9---------------------------|
D|---------------------------------|------------------------------------|
A|---------------------------------|------------------------------------|
E|---------------------------------|------------------------------------|

    Verse 3

      A(type3)                             A(type2)
e|----9-----9--9-----9--9-----9--9---7--|--5----5-5----5-5------5----7--|
B|----10----10-10----10-10----10-10--7--|--5----5-5----5-5----5-5----7--|
G|----9-----9---9----9--9-----9--9---7--|--6----6-6----6-6--6-6-6----7--|
D|--------------------------------------|----------------7--7-----------|
A|--------------------------------------|-------------------------------|
E|--------------------------------------|-------------------------------|
 |
e|--------------------------------------|-------------------------------|
B|--------------------------------------|-------------------------------|
G|--------------------------------------|-------------------------------|
D|--------------------------------------|-------------------------------|
A|--------------------------------------|-------------------------------|
E|--------------------------------------|-------------------------------|



      A(type3)                             A(type2)
e|----9-----9--9-----9--9-----9--9---7--|--5----5-5----5-5----5-5---7----|
B|----10----10-10----10-10----10-10--7--|--5----5-5----5-5----5-5---7----|
G|----9-----9---9----9--9-----9--9---7--|--6----6-6----6-6----6-6---7----|
D|--------------------------------------|--------------------------------|
A|--------------------------------------|--------------------------------|
E|--------------------------------------|--------------------------------|
 |                                                ~~~~~~
e|--------------------------5-----------|-----------------5--------5-----|
B|------------------------5---8p5-8b10--|--(10)-(10)----5-------------5--|
G|--------------------7b9---------------|--------------------------------|
D|--------------------------------------|--------------------------------|
A|--------------------------------------|--------------------------------|
E|--------------------------------------|--------------------------------|



      D                                     D(type3)
e|----14----14-14----14-14----14-14--12--|--10----10-10----10-10----10-5--7--|
B|----15----15-15----15-15----15-15--12--|--10----10-10----11-11----10-5--7--|
G|----14----14-14----14-14----14-14--12--|--11----11-11----11-11----11-6--7--|
D|---------------------------------------|-----------------------------------|
A|---------------------------------------|-----------------------------------|
E|---------------------------------------|-----------------------------------|
 |                                 ~~~~~~~~~~~~~~~~~~
e|---------------------------------------|-----------------------------------|
B|---------------------------------------|-----------------------------------|
G|----------------------7b8r7p5----5-----|--(5)----(5)/----------------------|
D|------------------------------7--------|-----------------------------------|
A|---------------------------------------|-----------------------------------|
E|---------------------------------------|-----------------------------------|



      A(type2)                        A(type3)
e|----5----5-5----5-5---x-5-5---7--|--9----9-9----9-9----9-9------|
B|----5----5-5----5-5---x-5-5---7--|--8----8-8----8-8----8-8------|
G|----6----6-6----6-6---x-6-6---7--|--9----9-9----9-9----9-9------|
D|---------------------------------|------------------------------|
A|---------------------------------|------------------------------|
E|---------------------------------|------------------------------|
 |                                           ~~~~~~~~~~
e|---------------------------------|------------------------------|
B|---------------------------------|---------5----------x---------|
G|----------------------4b5r4p2----|--2-4/5-------------x---------|
D|------------------------------4--|------------------------------|
A|---------------------------------|------------------------------|
E|---------------------------------|------------------------------|



          E9                               D9
e|----------------------------------|--------------------------------|
B|--------7---7-----7-----7---7--7--|------5---5-----5-----5---5--5--|
G|--------7---7-----7-----7---7--7--|------5---5-----5-----5---5--5--|
D|--------6---6-----6-----6---6--6--|------4---4-----4-----4---4--4--|
A|--------7---7-----7-----7---7--7--|------5---5-----5-----5---5--5--|
E|----------------------------------|--------------------------------|
 |                                          hold bend -----------
e|----------------------------------|--------------------------------|
B|----------------------------------|------8b10-(10)-------------r8--|
G|----------------------------------|--------------------------------|
D|----------------------------------|--------------------------------|
A|----------------------------------|--------------------------------|
E|----------------------------------|--------------------------------|



          A7add2                               E7#9
e|--------5---5---x---5---x--5---5---5--|------------------------------------------|
B|--------2---2---x---2---x--2---2---2--|------8--8---8--8---x---8---x--9---8---8--|
G|--------4---4---x---4---x--4---4---4--|------7--7---7--7---x---7---x--7---7---7--|
D|--------5---5---x---5---x--5---5---5--|------6--6---6--6---x---6---x--6---6---6--|
A|--------------------------------------|------7--7---7--7---x---7---x--7---7---7--|
E|--------------------------------------|------------------------------------------|
 |                                                                 ~~~~~~~~~
e|--------------------------------------|------------------------------------------|
B|-----------------/12b14---------------|------12p10------10------10------(10)\----|
G|--------------------------------------|-------------11------11-------------------|
D|--------------------------------------|------------------------------------------|
A|--------------------------------------|------------------------------------------|
E|--------------------------------------|------------------------------------------|

    Verse 4

          A7add2
e|--------5--5-5--5--5---x-5--5--5--|------5-5--5-5--5--5---x-5--5--5--|
B|--------2--2-2--2--2---x-2--2--2--|------2-2--2-2--2--2---x-2--2--2--|
G|--------4--4-4--4--4---x-4--4--4--|------4-4--4-4--4--4---x-4--4--4--|
D|--------5--5-5--5--5---x-5--5--5--|------5-5--5-5--5--5---x-5--5--5--|
A|----------------------------------|----------------------------------|
E|----------------------------------|----------------------------------|
 |
e|----------------------------------|----------------------------------|
B|----------------------------19b20-|-(20)----r19----------------------|
G|----------------------------19b20-|-(20)----r19----------------------|
D|----------------------------------|----------------------------------|
A|----------------------------------|----------------------------------|
E|----------------------------------|----------------------------------|



          A7(type3)              Adim7     A7(type3)
e|----------------------------------|-------------------------------------|
B|--------8-8--8-8--8--8--x-8----7--|------8-8--8-8--8--8--x-8--8--8------|
G|--------9-9--9-9--9--9--x-9----8--|------9-9--9-9--9--9--x-9--9--9------|
D|--------7-7--7-7--7--7--x-7----7--|------7-7--7-7--7--7--x-7--7--7------|
A|----------------------------------|-------------------------------------|
E|----------------------------------|-------------------------------------|
 |                          ~~~~~~~~~~~~                          ~~~~~~~~
e|----------------------------------|-------------------------------------|
B|----------------------20b22-------|-(22)-20b22-20b22--13b14-------------|
G|----------------------------------|-------------------------14-14-------|
D|----------------------------------|-------------------------------------|
A|----------------------------------|-------------------------------------|
E|----------------------------------|-------------------------------------|



          D7
e|--------8-8---8-8---8---8----x-8---8---8--|------8-8---8-8---8---8----x-8---8---8--|
B|--------7-7---7-7---7---7----x-7---7---7--|------7-7---7-7---7---7----x-7---7---7--|
G|--------7-7---7-7---7---7----x-7---7---7--|------7-7---7-7---7---7----x-7---7---7--|
D|------------------------------------------|----------------------------------------|
A|------------------------------------------|----------------------------------------|
E|------------------------------------------|----------------------------------------|
 |                                                                     ~~~~~~~~
e|--------------------------------17--------|----------------------------------------|
B|-----------------------------17----20p17--|----------------------------------------|
G|--(14)\5------------19-19b21--------------|------19b21r19p17-----------------------|
D|------------------------------------------|------------------19--16-19-------------|
A|------------------------------------------|----------------------------------------|
E|------------------------------------------|----------------------------------------|



          A7(type3)                Adim7     A7(type3)
e|------------------------------------|----------------------------------|
B|--------8-8--8-8--8--8---x-8--8--7--|------8-8--8-8--8--8---x-8--8--8--|
G|--------9-9--9-9--9--9---x-9--9--8--|------9-9--9-9--9--9---x-9--9--9--|
D|--------7-7--7-7--7--7---x-7--7--7--|------7-7--7-7--7--7---x-7--7--7--|
A|------------------------------------|----------------------------------|
E|------------------------------------|----------------------------------|
 |                          ~~~~~~~~~~~~
e|----------------20b22----20---------|-17-------------------------------|
B|------------------------------------|---20p17---17-------20b22--20b22--|
G|------------------------------------|--------19---19-------------------|
D|------------------------------------|----------------------------------|
A|------------------------------------|----------------------------------|
E|------------------------------------|----------------------------------|


 
          E9                                 D9
e|------------------------------------|----------------------------------|
B|--------7-7--7-7--7--7---x-7--7--7--|------5-5--5-5--5--5---x-5--5--5--|
G|--------7-7--7-7--7--7---x-7--7--7--|------5-5--5-5--5--5---x-5--5--5--|
D|--------6-6--6-6--6--6---x-6--6--6--|------4-4--4-4--4--4---x-4--4--4--|
A|--------7-7--7-7--7--7---x-7--7--7--|------5-5--5-5--5--5---x-5--5--5--|
E|------------------------------------|----------------------------------|
 |
e|------------------------------------|----------------------------------|
B|---------------------------20-22b24-|-(24)r22--20--20b22b24-(24)\------|
G|-----------------------/21----------|------------21--------------------|
D|------------------------------------|----------------------------------|
A|------------------------------------|----------------------------------|
E|------------------------------------|----------------------------------|


 
          A7(type3)                          E7#9
e|------------------------------------|-------------------------------|
B|--------8-8--8-8--8--8---x-8--8--8--|------8--8-8--x--8--8-8--8--x--|
G|--------9-9--9-9--9--9---x-9--9--9--|------7--7-7--x--7--7-7--7--x--|
D|--------7-7--7-7--7--7---x-7--7--7--|------6--6-6--x--6--6-6--6--x--|
A|------------------------------------|------7--7-7--x--7--7-7--7--x--|
E|------------------------------------|-------------------------------|
 |                  ~~~~~~~~~~~                 ~~~~~~   ~~~~~~~~~~~~~
e|------------------------------------|-------------------------------|
B|------10--10----(10)-------(10)\----|--------8--------8-------------|
G|----9-------------------------------|-----/9------------------------|
D|------------------------------------|-------------------------------|
A|------------------------------------|-------------------------------|
E|------------------------------------|-------------------------------|



          E7#9
e|---------------------------------|-------------------------------|
B|--------8--8-8--x--8--8-x--8--x--|------8--8-8--x--8--8-x--8--x--|
G|--------7--7-7--x--7--7-x--7--x--|------7--7-7--x--7--7-x--7--x--|
D|--------6--6-6--x--6--6-x--6--x--|------6--6-6--x--6--6-x--6--x--|
A|--------7--7-7--x--7--7-x--7--x--|------7--7-7--x--7--7-x--7--x--|
E|---------------------------------|-------------------------------|
 |  ~~~
e|---------------15-15-x-15(15)\3--|-----15--15-15---15-x-15(15)\3-|
B|---(8)---------15-15-x-15(15)\3--|-----15--15-15---15-x-15(15)\3-|
G|---------------------------------|-------------------------------|
D|---------------------------------|-------------------------------|
A|---------------------------------|-------------------------------|
E|---------------------------------|-------------------------------|


                                      Saxophone solo
          E7#9                            Am
e|---------------------------------|------------------------------|
B|--------8--8-8--x--8--8-x--8--x--|------5--5-5----5----5--5--x--|
G|--------7--7-7--x--7--7-x--7--x--|------5--5-5----5----5--5--x--|
D|--------6--6-6--x--6--6-x--6--x--|------------------------------|
A|--------7--7-7--x--7--7-x--7--x--|------------------------------|
E|---------------------------------|------------------------------|
 |
e|--------15--15-15---15-x-15------|------------------------------|
B|--------15--15-15---15-x-15------|------17\---------------------|
G|---------------------------------|------------------------------|
D|---------------------------------|------------------------------|
A|---------------------------------|------------------------------|
E|---------------------------------|------------------------------|



          Am
e|-------------------------------|-----------------------------|
B|--------5--5-5----5---5--7--5--|------5--5-5----5---5--7--5--|
G|--------5--5-5----5---5--7--5--|------5--5-5----5---5--7--5--|
D|-------------------------------|-----------------------------|
A|-------------------------------|-----------------------------|
E|-------------------------------|-----------------------------|
 |
e|-------------------------------|-----------------------------|
B|-------------------------------|-----------------------------|
G|-------------------------------|-----------------------------|
D|-------------------------------|-----------------------------|
A|-------------------------------|-----------------------------|
E|-------------------------------|-----------------------------|



          Am
e|-------------------------------|-----------------------------|
B|--------5--5-5----5---5--7--5--|------5--5-5----5---5--7--5--|
G|--------5--5-5----5---5--7--5--|------5--5-5----5---5--7--5--|
D|-------------------------------|-----------------------------|
A|-------------------------------|-----------------------------|
E|-------------------------------|-----------------------------|
 |
e|-------------------------------|-----------------------------|
B|-------------------------------|-----------------------------|
G|-------------------------------|-----------------------------|
D|-------------------------------|-----------------------------|
A|-------------------------------|-----------------------------|
E|-------------------------------|-----------------------------|



          Am
e|-------------------------------|-----------------------------|
B|--------5--5-5----5---5--7--5--|------5--5-5----5---5--7--5--|
G|--------5--5-5----5---5--7--5--|------5--5-5----5---5--7--5--|
D|-------------------------------|-----------------------------|
A|-------------------------------|-----------------------------|
E|-------------------------------|-----------------------------|
 |
e|-------------------------------|-----------------------------|
B|-------------------------------|-----------------------------|
G|-------------------------------|-----------------------------|
D|-------------------------------|-----------------------------|
A|-------------------------------|-----------------------------|
E|-------------------------------|-----------------------------|



          Am
e|-------------------------------|-----------------------------|
B|--------5--5-5----5---5--7--5--|------5--5-5----5---5--7--5--|
G|--------5--5-5----5---5--7--5--|------5--5-5----5---5--7--5--|
D|-------------------------------|-----------------------------|
A|-------------------------------|-----------------------------|
E|-------------------------------|-----------------------------|
 |
e|-------------------------------|-----------------------------|
B|-------------------------------|-----------------------------|
G|-------------------------------|-----------------------------|
D|-------------------------------|-----------------------------|
A|-------------------------------|-----------------------------|
E|-------------------------------|-----------------------------|



          Am
e|-------------------------------|-----------------------------|
B|--------5--5-5----5---5--7--5--|------5--5-5----5---5--7--5--|
G|--------5--5-5----5---5--7--5--|------5--5-5----5---5--7--5--|
D|-------------------------------|-----------------------------|
A|-------------------------------|-----------------------------|
E|-------------------------------|-----------------------------|
 |
e|-------------------------------|-----------------------------|
B|-------------------------------|-----------------------------|
G|-------------------------------|-----------------------------|
D|-------------------------------|-----------------------------|
A|-------------------------------|-----------------------------|
E|-------------------------------|-----------------------------|



          Am                         E
e|--------------------------------|--12------12------12------12--------|
B|--------5--5-5----5-------------|--12------12------12------12--------|
G|--------5--5-5----5-------------|--13------13------13------13--------|
D|--------------------------------|------------------------------------|
A|--------------------------------|------------------------------------|
E|--------------------------------|------------------------------------|
 |
e|--------------------------------|------------------------------------|
B|--------------------------------|------------------------------------|
G|--------------------------------|------------------------------------|
D|--------------------------------|------------------------------------|
A|--------------------------------|------------------------------------|
E|--------------------------------|------------------------------------|

    Verse 5

          A7(type4)          Ab7       A7                 Ab7
e|------------------------------|----------------------------|
B|--------8---8-8--8----8----7--|------8---8-8--8----8----7--|
G|--------6---6-6--6----6----5--|------6---6-6--6----6----5--|
D|--------7---7-7--7----7----6--|------7---7-7--7----7----6--|
A|------------------------------|----------------------------|
E|------------------------------|----------------------------|
 |
e|------------------------------|----------------------------|
B|------------------------------|----------------------------|
G|------------------------------|----------------------------|
D|------------------------------|----------------------------|
A|------------------------------|----------------------------|
E|------------------------------|----------------------------|



          A7                 Ab7       A7                 Ab7
e|------------------------------|----------------------------|
B|--------8---8-8--8----8----7--|------8---8-8--8----8----7--|
G|--------6---6-6--6----6----5--|------6---6-6--6----6----5--|
D|--------7---7-7--7----7----6--|------7---7-7--7----7----6--|
A|------------------------------|----------------------------|
E|------------------------------|----------------------------|
 |
e|------------------------------|----------------------------|
B|------------------------------|----------------------------|
G|------------------------------|----------------------------|
D|------------------------------|----------------------------|
A|------------------------------|----------------------------|
E|------------------------------|----------------------------|



          D(type3)
e|--------10-10--10-10---10---10---10\--|------10-10--10-10---10---10---10\--|
B|--------10-10--10-10---10---10---10\--|------10-10--10-10---10---10---10\--|
G|--------11-11--11-11---11---11---11\--|------11-11--11-11---11---11---11\--|
D|--------------------------------------|------------------------------------|
A|--------------------------------------|------------------------------------|
E|--------------------------------------|------------------------------------|
 |
e|--------------------------------------|------------------------------------|
B|--------------------------------------|------------------------------------|
G|--------------------------------------|------------------------------------|
D|--------------------------------------|------------------------------------|
A|--------------------------------------|------------------------------------|
E|--------------------------------------|------------------------------------|



          A(type2)                    D(type2)  A(type3)
e|--------5--5---5--5-----5-----5-----5--|------9--9---9--9----9----9----x--|
B|--------5--5---5--5-----5-----5-----7--|------10-10--10-10---10---10---x--|
G|--------6--6---6--6-----6-----6-----7--|------9--9---9--9----9-----9---x--|
D|---------------------------------------|----------------------------------|
A|---------------------------------------|----------------------------------|
E|---------------------------------------|----------------------------------|
 |
e|---------------------------------------|----------------------------------|
B|---------------------------------------|----------------------------------|
G|---------------------------------------|----------------------------------|
D|---------------------------------------|----------------------------------|
A|---------------------------------------|----------------------------------|
E|---------------------------------------|----------------------------------|



          E9                          D9
e|-----------------------------|---------------------------|
B|--------7--7----7----7----7--|------5--5----5----5----5--|
G|--------7--7----7----7----7--|------5--5----5----5----5--|
D|--------6--6----6----6----6--|------4--4----4----4----4--|
A|--------7--7----7----7----7--|------5--5----5----5----5--|
E|-----------------------------|---------------------------|
 |
e|-----------------------------|---------------------------|
B|-----------------------------|---------------------------|
G|-----------------------------|---------------------------|
D|-----------------------------|---------------------------|
A|-----------------------------|---------------------------|
E|-----------------------------|---------------------------|



          Aadd2                          E7#9
e|--------5--5-5--5--5----5--5-5--|-------------------------------|
B|--------2--2-2--2--2----2--2-2--|------8-8--8-8----8----8--8-8--|
G|--------4--4-4--4--4----4--4-4--|------7-7--7-7----7----7--7-7--|
D|--------5--5-5--5--5----5--5-5--|------6-6--6-6----6----6--6-6--|
A|--------------------------------|------7-7--7-7----7----7--7-7--|
E|--------------------------------|-------------------------------|
 |
e|--------------------------------|-------------------------------|
B|--------------------------------|-------------------------------|
G|--------------------------------|-------------------------------|
D|--------------------------------|-------------------------------|
A|--------------------------------|-------------------------------|
E|--------------------------------|-------------------------------|



          E7#9
e|---------------------------------|-------------------------------|
B|--------8-8--8-8----8----8--8-8--|-------8-8--8-8----8--x--------|
G|--------7-7--7-7----7----7--7-7--|-------7-7--7-7----7--x--------|
D|--------6-6--6-6----6----6--6-6--|-------6-6--6-6----6--x--------|
A|--------7-7--7-7----7----7--7-7--|-------7-7--7-7----7--x--------|
E|---------------------------------|-------------------------------|
 |
e|---------------------------------|-------------------------------|
B|---------------------------------|-------------------------------|
G|---------------------------------|-------------------------------|
D|---------------------------------|-------------------------------|
A|---------------------------------|-------------------------------|
E|---------------------------------|-------------------------------|



          A13
e|--------14\----------------------|
B|--------14\----------------------|
G|--------12\----------------------|
D|---------------------------------|
A|---------------------------------|
E|---------------------------------|
 |
e|---------------------------------|
B|---------------------------------|
G|---------------------------------|
D|---------------------------------|
A|---------------------------------|
E|---------------------------------|



Recitation (former US President Lyndon B Johnson): “I speak tonight for the 
dignity of Man and the destiny of America...“

Laughter & applause

| (E)              |                  |                  |                  |

|                  |                  | Eadd2     C9 C#9 | D9               |

| A(type3)         | A                | A(type3)         | A                |

| D7(type3)        | D7(type3)        | A(type3)         | A                |

| E                | D7(type3)        | A(type3)         | E7#9             |


Verse 1

          A(type3)        A
I shoulda quit you
             A(type3)        A
A long time ago
              D                  D
Yes, I shoulda quit you, baby
           A(type3)        A
A long time ago
                 E
You know, I wouldn’t be here now, people
D7(type3)                  A        E7#9
Down on the killing floor


Verse 2

       A           A
If I’d listened
             A           A
To my second mind
             D7(type5)           D7(type4)
Yes, if I hada listened
                   A(type3)           A
To my second mind
                    E
You know, I wouldn’t be here now, people
D(type2)                   A7           E7#9
Down on the killing floor


Guitar solo

| A7add2           | A7add2           | A7add2           | A7add2           |

| D9               | D9               | A7add2           | A7add2           |

| E9               | D9               | A7add2           | E7#9             |

| A(type3)         | A                | A(type3)         | A                |

| D7(type5)        | D7(type4)        | A(type3)         | A(type3)         |

| E7               | D7               | A                | E7#9             |

| A7(type4)        | A7(type4)        | A7(type4)        | A7(type4)        |

| D7(type2)        | D7(type2)        | A7(type4)        | A7(type4)        |

| E7(type2)        | D7(type2)        | A7(type2)        | E7#9             |


Verse 3

        A(type3)        A
If I’da listened
               A(type3)        A
To my second mind
             D               D
Yes, if I hada listened
                   A(type3)        A
To my second mind
                          E9
Well, you know, I wouldn’t be here now, people
D9                         A7add2        E7#9
Down on the killing floor


Verse 4

                 A7add2
I should’ve gone on
A7add2                             A7(type3)      Adim7
When my friend said come to Mexico with me
A7(type3)        D7(type5)
Yes, I should’ve gone on 
D7(type4)                       A7(type3)      Adim7        A7(type3)
When my friend said come to Mexico with me
                          E9
Well, you know, I wouldn’t be here now, people
D9                         A7add2        E7#9
Down on the killing floor


| E7#9             | E7#9             | E7#9             |


Saxophone solo (key change to Am)

| Am               | Am               | Am               | Am               |

| Am               | Am               | Am               | Am               |

| Am               | Am               | Am               | Am               |



Verse 5 (key change to A)

E             A7(type4)          Ab7(type4) A7
Yes, I shoulda quit you, babe
        Ab7(type4) A7     Ab7(type4) A7
A long, long  time ago
     Ab7(type4) D(type3)         D(type3)
Yes, I shoulda quit you, babe
            A           D(type2)    A(type3)
A long time ago
                     E9
You know, I wouldn’t be here now, people
D9                         A7add2        E7#9
Down on the killing floor

| E7#9             | E7#9             | A13              |




Chords

Eadd2    C9    C#9    D9    A    A(type2)  A(type3)  A7    A7(type2)  A7(type3)

12       3     4      5     0    5         9         x     9          x
9        3     4      5     2    5         10        5     8          8
11       3     4      5     2    6         9         6     9          9
12       2     3      4     x    x         x         5     x          7
x        3     4      5     x    x         x         x     x          x
x        x     x      x     x    x         x         x     x          x


A7(type4)  A7add2    Adim7    A13    Ab7    D    D(type2)  D(type3)  D7    D7(type2)

5          5         x        14     x      14   5         10        5     8
8          2         7        14     7      15   7         10        7     10
6          4         8        12     5      14   7         11        5     11
7          5         7        x      6      x    7         x         x     x
x          x         x        x      x      x    x         x         x     x
x          x         x        x      x      x    x         x         x     x


D7(type3)  D7(type4)  D7)type5)  E    E(type2)  E7    E7(type2)  E7#9    E9 

8          10         10         7    12        7     10          x       7
7          7          13         9    12        9     12          8       7
7          7          12         9    13        7     13          7       7
7          x          x          9    x         x     x           6       6
5          x          x          7    x         x     x           7       7
x          x          x          x    x         x     x           x       x




/    slide up
\    slide down
h    hammer-on
p    pull-off
hb   hold bend
bss  bend slightly sharp
~~   vibrato


===============================================================================
comments
We did not receive enough feedback on this tab! Please rate:
print report bad tab
1 2 3 4 5
I want to post or [tab]
guest
You may want to rate the tab now too:
select rating
Please do not post tabs as comments. Select "correction" instead!