Oops, an error
Loading. Please wait.

Cochise Tab

ver2
ver2

Whole song

More versions @911Tabs.com
4,533 views 6 this week
no commentswrite comment
1 2 3 4 5
excellent!
x 2
Autoscroll
+/-
esc
set tempo
stop
Contributor
Difficulty
intermediate
Hey! There's an official Ultimate Guitar app which is ideal
for learning songs when you're away from computer. Get the app
WARNING: You are trying to view
                                    content from Ultimate-Guitar.com
                                    in an unauthorized application,
                                    which is prohibited.

                                    Please use an official Ultimate
                                    Guitar Tabs application for iPhone,
                                    iPad or Android to access legitimate
                                    chords, guitar, bass, and drum tabs
                                    from Ultimate-Guitar.com database.

                                    Type "ultimate guitar tabs" in Apple
                                    App Store's or Android Market's
                                    search to find the application.
-------------------------------------------------------------------------------
                             Cochise – Mike Oldfield
-------------------------------------------------------------------------------
Tabbed by: littleleo
Email: b.gillam@gmail.com

Tuning: Standard

This is the acoustic guitar and electric distorted guitar over the top of the backing 
I will probably add the chords at a later date.

0:00
E----------------------------------------------------------------------------|
B----12-10-12----10/12-12------------10--------------------------------------|
G-11----------11----------14-11-9/11----9~-9h11p9----9-11--------------------|
D-------------------------------------------------12-------------------------|
A----------------------------------------------------------------------------|
E----------------------------------------------------------------------------|

E----------------------------------------------------------------------------|
B------10----10h12----12/14-12-----------------------------------------------|
G-9/11----11-------11----------14-11-------14--------------------------------|
D------------------------------------14/16----16-16b17-14-14h16p14-12-14-16~-|
A----------------------------------------------------------------------------|
E----------------------------------------------------------------------------|

0:26
E----------------------------------------------------------------------------|
B----------------------------------------------------------------------------|
G-------------------------------14----14-16-16/18\16-14-14-------------------|
D-14b15-12----------12-12-14/16----16----------------------16-14/16----------|
A----------14-12-14----------------------------------------------------------|
E----------------------------------------------------------------------------|

E----------------------------------------------------------------------------|
B----------------------------------------------------------------------------|
G--------------------14----14-16-16h18-16-14b15------------------------------|
D--16----12-12/14-16----16----------------------16p14------------------------|
A-----14---------------------------------------------------------------------|
E----------------------------------------------------------------------------|

0:47
E----------------------------------------------------------------------------|
B----------------------------------------------------------------------------|
G---------------------------------------------------------------------14-----|
D-----12-14b16-12----12-12-14---------------------------------12-14/16-------|
A--14-------------14-------------14—14/16-14-12---------12-14----------------|
E-----------------------------------------------14---14----------------------|

E----------------------------------------------------------------------------|
B----------------------------------------------------------------------------|
G----14-16-16h18p16-14-14p11-------------------------------------------------|
D-16-------------------------------------------------------------------------|
A----------------------------------------------------------------------------|
E----------------------------------------------------------------------------|

1:09
E----------------------------------------------------------------------------|
B----------------------------------------------------------------------------|
G---------------------------------------------------------------------14-----|
D-----12-14b16-12----12-12-14---------------------------------12-14/16-------|
A--14-------------14-------------14—14/16-14-12---------12-14----------------|
E-----------------------------------------------14---14----------------------|

E----------------------------------------------------------------------------|
B----------------------------------------------------------------------------|
G----14-16-16h18p16-14-14p11-------------------------------------------------|
D-16-------------------------------------------------------------------------|
A----------------------------------------------------------------------------|
E----------------------------------------------------------------------------|

Guitar 2 at 1:09 over the top of acoustic
E--------------------------------------------------------------|
B-17-17-17p15-15-15-15-----------------------------------------|
G----------------------16-16-16-16p14-14-14-14p12-12-12-12-----|
D----------------------------------------------------------14--|
A--------------------------------------------------------------|
E--------------------------------------------------------------|

1:31
E---------------------------------------------------------------------------|
B-------12----12/14-12------------10----------------------------------------|
G-11h14----11----------14-11-9h11----9b10-9h11p9----9-11--------------------|
D------------------------------------------------12-------------------------|
A---------------------------------------------------------------------------|
E---------------------------------------------------------------------------|

E---------------------------------------------------------------------------|
B------10----10-12----12/14-12------------10------------7-------7-----------|
G—9h11----11-------11----------14-11-9-11----11-9p7-9-9---9-7-9-------------|
D---------------------------------------------------------------------------|
A---------------------------------------------------------------------------|
E---------------------------------------------------------------------------|

E---------------------------------------------------------------------------|
B-----------------------10----10/12-12h14p12-10-10p7------10----------------|
G-9b11b9-7-------7-9/11----11------------------------9/11----9b11b9-7-------|
D----------9-7-9------------------------------------------------------------|
A---------------------------------------------------------------------------|
E---------------------------------------------------------------------------|

E---------------------------------------------------------------------------|
B----------------10-10----10/12-12-12/14-12-10b12---------------------------|
G-------7-7/9-11-------11---------------------------------------------------|
D-9-7-9---------------------------------------------------------------------|
A---------------------------------------------------------------------------|
E---------------------------------------------------------------------------|

2:13
E---------------------------------------------------------------------------|
B---------------------------------------------------------------------------|
G---------------------------------------------------------------------14----|
D-----12-14b16-12----12-12-14---------------------------------12-14/16------|
A--14-------------14-------------14—14/16-14-12---------12-14---------------|
E-----------------------------------------------14---14---------------------|

E---------------------------------------------------------------------------|
B---------------------------------------------------------------------------|
G----14-16-16h18p16-14-14p11------------------------------------------------|
D-16------------------------------------------------------------------------|
A---------------------------------------------------------------------------|
E---------------------------------------------------------------------------|

2:37
E---------------------------------------------------------------------------|
B---------------------------------------------------------------------------|
G---------------------------------------------------------------------14----|
D-----12-14b16-12----12-12-14---------------------------------12-14/16------|
A--14-------------14-------------14—14/16-14-12---------12-14---------------|
E-----------------------------------------------14---14---------------------|

E---------------------------------------------------------------------------|
B---------------------------------------------------------------------------|
G----14-16-16h18p16-14-14p11------------------------------------------------|
D-16------------------------------------------------------------------------|
A---------------------------------------------------------------------------|
E---------------------------------------------------------------------------|

Guitar 2 at 2:37 over the top of acoustic
E---------------------------------------------------------------------------|
B-17-17-17p15-15-15-15------------------------------------------------------|
G----------------------16-16-16-16p14-14-14-14p12-12-12-12------------------|
D----------------------------------------------------------14---------------|
A---------------------------------------------------------------------------|
E---------------------------------------------------------------------------|

2:55 with wah!
E---------------------------------------------------------------------------|
B----10-10h12----12b15-10-----------10-10-12----12b15-10--------------------|
G-11----------11----------11---9/11----------11----------11-----------------|
D---------------------------------------------------------------------------|
A---------------------------------------------------------------------------|
E---------------------------------------------------------------------------|

E---------------------------------------------------------------------------|
B---------------------------------------------------------------------------|
G----------------14--------------------14-----------------------------------|
D----12-12h14-16-----------12-12/14-16--------------------------------------|
A-14-----------------12/14--------------------------------------------------|
E---------------------------------------------------------------------------|

3:38
E---------------------------------------------------------------------------|
B---------------------------------------------------------------------------|
G---------------------------------------------------------------------14----|
D-----12-14b16-12----12-12-14---------------------------------12-14/16------|
A--14-------------14-------------14—14/16-14-12---------12-14---------------|
E-----------------------------------------------14---14---------------------|

E---------------------------------------------------------------------------|
B---------------------------------------------------------------------------|
G----14-16-16h18p16-14-14p11------------------------------------------------|
D-16------------------------------------------------------------------------|
A---------------------------------------------------------------------------|
E---------------------------------------------------------------------------|

4:00
E---------------------------------------------------------------------------|
B---------------------------------------------------------------------------|
G---------------------------------------------------------------------14----|
D-----12-14b16-12----12-12-14---------------------------------12-14/16------|
A--14-------------14-------------14—14/16-14-12---------12-14---------------|
E-----------------------------------------------14---14---------------------|

E---------------------------------------------------------------------------|
B---------------------------------------------------------------------------|
G----14-16-16h18p16-14-14p11------------------------------------------------|
D-16------------------------------------------------------------------------|
A---------------------------------------------------------------------------|
E---------------------------------------------------------------------------|

Guitar 2 at 4:00 over the top of acoustic x4
E---------------------------------------------------------------------------|
B-17-17-17p15-15-15-15------------------------------------------------------|
G----------------------16-16-16-16p14-14-14-14p12-12-12-12------------------|
D----------------------------------------------------------14---------------|
A---------------------------------------------------------------------------|
E---------------------------------------------------------------------------|

Continue playing from 4:00 again and again until end

Guitar 3, solo electric with wah! 4:25
E---------------------------------------------------------------------------|
B-------17b19b17-15-17-15---------------------------------------------------|
G—14h16----------------------------14----16-14------------------------------|
D----------------------------14/16----16------------------------------------|
A---------------------------------------------------------------------------|
E---------------------------------------------------------------------------|

E-------19-17----------------19-17------------------------------------------|
B-17b19-------19-17-15-17b19-------17b19------------------------------------|
G-----------------------------------------7-------7-9-7---------------------|
D-----------------------------------------7-9-9-9-7-9-7---------------------|
A-----------------------------------------5-9-9-9-5-7-5---------------------|
E-------------------------------------------7-7-7---------------------------|

4:46
E------------7------7-------------------------------------------------------|
B----------7------7-------17b19-17p15p13----15----17-15---------------------|
G---7-9-9b-----9b-----9------------------16----16---------------------------|
D-9-------------------------------------------------------------------------|
A---------------------------------------------------------------------------|
E---------------------------------------------------------------------------|

E--------------------------------17-15--------------------------------------|
B—15b-15b-15b-15b-14----15-15b17-------17-----15-17-17b-17p15----17-15------|
G--------------------14--------------------16-----------------16------------|
D---------------------------------------------------------------------------|
A---------------------------------------------------------------------------|
E---------------------------------------------------------------------------|

| /  slide up
| \  slide down
| h  hammer-on
| p  pull-off
| ~  vibrato
| +  harmonic
| x  Mute note
======================================================================
comments
We did not receive enough feedback on this tab! Please rate:
print report bad tab
1 2 3 4 5
I want to post or [tab]
guest
You may want to rate the tab now too:
select rating
Please do not post tabs as comments. Select "correction" instead!