Oops, an error
Loading. Please wait.

Dark Island Tab

ver2
ver2

Whole song

More versions @911Tabs.com
1,492 views 1 this week
no commentswrite comment
1 2 3 4 5
please rate
Autoscroll
+/-
esc
set tempo
stop
Difficulty
intermediate
WARNING: You are trying to view
                                    content from Ultimate-Guitar.com
                                    in an unauthorized application,
                                    which is prohibited.

                                    Please use an official Ultimate
                                    Guitar Tabs application for iPhone,
                                    iPad or Android to access legitimate
                                    chords, guitar, bass, and drum tabs
                                    from Ultimate-Guitar.com database.

                                    Type "ultimate guitar tabs" in Apple
                                    App Store's or Android Market's
                                    search to find the application.
Mike Oldfield - Voyager - Dark Island

A really good song of new age!
Mike oldfield is a really good artist!!

|-7---9-7------7--------------------------------12--------12---------------|
|---------10-----10\7----------12-14---12----14--------14----14-15\(14)-12-|
|---------------------9-7-9/14------------14-------------------------------|
|---------------------------------------------------14---------------------|
|--------------------------------------------------------------------------|
|--------------------------------------------------------------------------|


|---7-----9-7------7-----------------------12-------------------------------|
|-7-----------10-----10\7----------12-14------14h15p14-12---14-12---10---10-|
|-------------------------9-7-9/14------------------------------------------|
|---------------------------------------------------------------------------|
|---------------------------------------------------------------------------|
|---------------------------------------------------------------------------|


|-7---9-7------7--------------------------------12----------12---------------|
|---------10-----10\7----------12-14---12----14-------14-------14-15\(14)-12-|
|---------------------9-7/9/14------------14---------------------------------|
|--------------------------------------------------14------------------------|
|----------------------------------------------------------------------------|
|----------------------------------------------------------------------------|


|---7-----9-7------7-----------------------12-------------------------------|
|-7-----------10-----10\7----------12-14------14/15\14---12---14-12-10---10-|
|-------------------------9-7-9/14------------------------------------------|
|---------------------------------------------------------------------------|
|---------------------------------------------------------------------------|
|---------------------------------------------------------------------------|


|-12---12-12-9---7----------------------------------12-------12-------------|
|------------------10\7----------12-14---12----14---------14----14h15p14-12-|
|-----------------------9-7/9/14------------14------------------------------|
|------------------------------------------------------14-------------------|
|---------------------------------------------------------------------------|
|---------------------------------------------------------------------------|


|---7-----9-7------7-----------------------12-------------------------------|
|-7-----------10-----10\7----------12-14------14h15p14-12---14-12-10---10---|
|-------------------------9-7-9/14------------------------------------------|
|---------------------------------------------------------------------------|
|---------------------------------------------------------------------------|
|---------------------------------------------------------------------------|


|-7---9-7------7----------------------------------12---------12-------------|
|---------10-----10\7----------12-14---12------14---------14----14-15\14-12-|
|---------------------9-7-9/14------------14--------------------------------|
|------------------------------------------------------14-------------------|
|---------------------------------------------------------------------------|
|---------------------------------------------------------------------------|


|---7----9-7------7----------------------12---------------------------------|
|-7----------10-----10\7----------12-14-----14h15p14-12---14-12----10-12-10-|
|------------------------9-7-9/14-------------------------------11----------|
|---------------------------------------------------------------------------|
|---------------------------------------------------------------------------|
|---------------------------------------------------------------------------|


|-12---12---9-----7---------------------------------12--------12-------------|
|-------------------10\7-------------12-14-12----14--------14----14-15\14-12-|
|---------9------------7-9-7-9----14----------14-----------------------------|
|----------------------------11-------------------------14-------------------|
|----------------------------------------------------------------------------|
|----------------------------------------------------------------------------|


|------7--9-7-----7---------------------12-----------------------------------|
|(5)/7--------10----10\7----------12-14----14h15p14-12-14-12--------10-12-10-|
|------------------------9-7-9-14----------------------------(9)/11----------|
|----------------------------------------------------------------------------|
|----------------------------------------------------------------------------|
|----------------------------------------------------------------------------|

--Background Chords(D,E)
Fast Part:

-----------------------|-------------14-16-17-14-16----14-----------|
-----------------------|----------14----------------17----14--------|
--(14)---13/14\13---11-|-11-13-14----------------------------14-13--|
-----------------------|--------------------------------------------|
-----------------------|--------------------------------------------|
-----------------------|--------------------------------------------|

------------------------|-------------14-16-17-14-16----14----------|
---------12-14----------|----------14----------------17----14-------|
11-13-14----------------|-11-13-14----------------------------14-13-|
---------------11----11-|-------------------------------------------|
------------------14----|-------------------------------------------|
------------------------|-------------------------------------------|

------------------------|-------------14-16-17-14-16----14----------|
---12-------------------|----------14----------------17----14-------|
14----13-14-11-------11-|-11-13-14----------------------------14-13-|
---------------11-14----|-------------------------------------------|
------------------------|-------------------------------------------|
------------------------|-------------------------------------------|

---------------|-14-16-17-14-16----14----|----------12--------------|
---------12-14-|----------------17----14-|----12-14----14-12--------|
11-13-14-------|-------------------------|-14----------------14-11--|
---------------|-------------------------|--------------------------|
---------------|-------------------------|--------------------------|
---------------|-------------------------|--------------------------|

---------------------|----------|-------------14-16-17-14-16----14----------|
---------------------|----------|----------14----------------17----14-------|
11-13-14-11-13----11-|-------11-|-11-13-14----------------------------14-13-|
---------------14----|-11-14----|-------------------------------------------|
---------------------|----------|-------------------------------------------|
---------------------|----------|-------------------------------------------|

------------------------|-------------14-16-17-14-16----14----------|
---------12-14----------|----------14----------------17----14-------|
11-13-14-------11----11-|-11-13-14----------------------------14-13-|
------------------14----|-------------------------------------------|
------------------------|-------------------------------------------|
------------------------|-------------------------------------------|

------------------------|--------------14-16-17-14-16----14----------|
---12-------------------|-----------14----------------17----14-------|
14----13-14-11-------11-|--11-13-14----------------------------14-13-|
---------------11-14----|--------------------------------------------|
------------------------|--------------------------------------------|
------------------------|--------------------------------------------|

---------------|-14-16-17-14-16----14----|----------12-------------|
---------12-14-|----------------17----14-|----12-14----14-12-------|
11-13-14-------|-------------------------|-14----------------14-11-|
---------------|-------------------------|-------------------------|
---------------|-------------------------|-------------------------|
---------------|-------------------------|-------------------------|

---------------------|----------|-------------14-16-17-14-16----14----------|
---------------------|----------|----------14----------------17----14-------|
11-13-14-11-13----11-|-------11-|-11-13-14----------------------------14-13-|
---------------14----|-11-14----|-------------------------------------------|
---------------------|----------|-------------------------------------------|
---------------------|----------|-------------------------------------------|

------------------------|-------------14-16-17-14-16----14----------|
---------12-14----------|----------14----------------17----14-------|
11-13-14-------11----11-|-11-13-14----------------------------14-13-|
------------------14----|-------------------------------------------|
------------------------|-------------------------------------------|
------------------------|-------------------------------------------|

------------------------|-------------14-16-17-14-16----14----------|
---12-------------------|----------14----------------17----14-------|
14----13-14-11-------11-|-11-13-14----------------------------14-13-|
---------------11-14----|-------------------------------------------|
------------------------|-------------------------------------------|
------------------------|-------------------------------------------|

---------------|-14-16-17-14-16----14----|----------12-------------|
---------12-14-|----------------17----14-|----12-14----14-12-------|
11-13-14-------|-------------------------|-14----------------14-11-|
---------------|-------------------------|-------------------------|
---------------|-------------------------|-------------------------|
---------------|-------------------------|-------------------------|

---------------------|----------------------|--------------|--------------|
---------------------|----------------------|--------------|--------------|
11-13-14-11-13----11-|-11-13-14-11-13----11-|----9-11-9-11-|----9-11-9-11-|
---------------14----|----------------14----|-11-----------|-11-----------|
---------------------|----------------------|--------------|--------------|
---------------------|----------------------|--------------|--------------|

-------------|-----------|--------------|----------------|----------------|
-------------|------10-9-|------10-9-10-|-------14-12-14-|-------14-12-14-|
---9-11-9-11-|----9-11-9-|----9-11-9-11-|-------11-9--11-|-------11-9--11-|
11-----------|-11--------|-11-----------|-11-14----------|-11-14----------|
-------------|-----------|--------------|----------------|----------------|
-------------|-----------|--------------|----------------|----------------|

-------------|--------------|
-------------|--------------|
---9-11-9-11-|----9-11-9-11-|
11-----------|-11-----------|
-------------|--------------|
-------------|--------------|

by soulfreak               raramires@yahoo.com
                                   or
                          elpegre_pedrero@hotmail.com
comments
We did not receive enough feedback on this tab! Please rate:
print report bad tab
1 2 3 4 5
I want to post or [tab]
guest
You may want to rate the tab now too:
select rating
Please do not post tabs as comments. Select "correction" instead!