Oops, an error
Loading. Please wait.

Muse Tab

ver2
ver2

Whole song

Interactive

More versions @911Tabs.com
8,836 views 21 this week
no commentswrite comment
1 2 3 4 5
excellent!
x 5
Autoscroll
+/-
esc
set tempo
stop
Contributor
Difficulty
intermediate
WARNING: You are trying to view
                                    content from Ultimate-Guitar.com
                                    in an unauthorized application,
                                    which is prohibited.

                                    Please use an official Ultimate
                                    Guitar Tabs application for iPhone,
                                    iPad or Android to access legitimate
                                    chords, guitar, bass, and drum tabs
                                    from Ultimate-Guitar.com database.

                                    Type "ultimate guitar tabs" in Apple
                                    App Store's or Android Market's
                                    search to find the application.
Isn't too hard this one, enjoy




Lead Guitar
                                                                               
E||------------------|------------------|------------------|------------------|
B||------------------|------------------|------------------|------------------|
G||------------------|------------------|------------------|------------------|
D||------------------|------------------|------------------|------------------|
A||------------------|------------------|------------------|------------------|
E||------------------|------------------|------------------|------------------|


                                                                   
--------------7--5--|--7-------------------|--5----------------0--|
--------------------|-------5---------7-8--|----------------3-----|
--------------------|----------------------|-------5--------------|
--------------------|----------------------|----------------------|
--------------------|----------------------|----------------------|
--------------------|----------------------|----------------------|


                                                                          
--------5---5---7------|-----0--0--------7--5--7-|-----------------2--3--|
--3--------------------|-------------------------|------5-------5--------|
-----------------------|--7----------------------|-----------------------|
-----------------------|-------------------------|-----------------------|
-----------------------|-------------------------|-----------------------|
-----------------------|-------------------------|-----------------------|


                                                                     
--5-------------0--2--|--0------7--5-3--2-----|--0------------2--3--|
-------3--------------|-----------------------|---------------------|
----------------------|-----------------------|---------------------|
----------------------|-----------------------|---------------------|
----------------------|-----------------------|---------------------|
----------------------|-----------------------|---------------------|


                                                                      
--5-------------0-2--3-|-----------------0----|--------5--5-----5----|
-------3---------------|------1--------3----3-|----------------------|
-----------------------|----------------------|----------------------|
-----------------------|----------------------|----------------------|
-----------------------|----------------------|----------------------|
-----------------------|----------------------|----------------------|


                                                                      
-----0----------7-----|--7----0------0--2-3--5-|---------------0--2--|
--3-------------------|------------------------|-------3-------------|
----------------------|------------------------|---------------------|
----------------------|------------------------|---------------------|
----------------------|------------------------|---------------------|
----------------------|------------------------|---------------------|


                                                                           
--0------7--5-3--2-----|--2---0---------7--5--|--7----------------2--3--5-|
-----------------------|----------------------|--------5-----5--5---------|
-----------------------|----------------------|---------------------------|
-----------------------|----------------------|---------------------------|
-----------------------|----------------------|---------------------------|
-----------------------|----------------------|---------------------------|


                                                                     
------------------0---|--------5-5-----5------|---0----------7-5--7-|
---------------3----3-|---------------------3-|---------------------|
------5---------------|-----------------------|---------------------|
----------------------|-----------------------|---------------------|
----------------------|-----------------------|---------------------|
----------------------|-----------------------|---------------------|


                                                                       
---------------------5-|-----------------------|--------7--5--3--2----|
-------5-------7--8----|----------------5--7-5-|----------------------|
-----------------------|------7----------------|----------------------|
-----------------------|-----------------------|----------------------|
-----------------------|-----------------------|----------------------|
-----------------------|-----------------------|----------------------|


                                                                       
---2-----------2--3--5-|----------------0-2--|--3----------------0----|
-----------------------|------3------3-------|--------1--------3----3-|
-----------------------|---------------------|------------------------|
-----------------------|---------------------|------------------------|
-----------------------|---------------------|------------------------|
-----------------------|---------------------|------------------------|


                                                                         
--------5--5-----5---|-----0--------5-----5--|--7----0-----0--0-2--3--5-|
---------------------|--3--------------------|--------------------------|
---------------------|-----------------------|--------------------------|
---------------------|-----------------------|--------------------------|
---------------------|-----------------------|--------------------------|
---------------------|-----------------------|--------------------------|


                                                                     
---------------0-2--0-|--------7--5-3--2-----|--2----0--------0--2--|
------3---------------|----------------------|----------------------|
----------------------|----------------------|----------------------|
----------------------|----------------------|----------------------|
----------------------|----------------------|----------------------|
----------------------|----------------------|----------------------|


                                                                         
--3----0-----0-0--2-3---|--5-------------0-2--0-|--------2-3-----3--7-5-|
------------------------|-------3---------------|-----------------------|
------------------------|-----------------------|-----------------------|
------------------------|-----------------------|-----------------------|
------------------------|-----------------------|-----------------------|
------------------------|-----------------------|-----------------------|


                                                                        
-----------------2--3-|------0-----0--0--2-3--5-|---------------0-2--0-|
--------------5-------|-------------------------|------3---------------|
----------------------|-------------------------|----------------------|
----------------------|-------------------------|----------------------|
----------------------|-------------------------|----------------------|
----------------------|-------------------------|----------------------|


                                                                         
--------5--5--3-2-----|--0------------0--2--3-|------0-----0--0-2--3--5-|
----------------------|-----------------------|-------------------------|
----------------------|-----------------------|-------------------------|
----------------------|-----------------------|-------------------------|
----------------------|-----------------------|-------------------------|
----------------------|-----------------------|-------------------------|


                                                                      
----------------0--2-0-|--------2-3----5-----5-|-----------------2-3-|
------3----------------|-----------------------|--------------5------|
-----------------------|-----------------------|---------------------|
-----------------------|-----------------------|---------------------|
-----------------------|-----------------------|---------------------|
-----------------------|-----------------------|---------------------|


                                                                        
------0-----0--0--2-3--3-|---------------0--2-0-|--------7--5--3-2-----|
-------------------------|------3---------------|----------------------|
-------------------------|----------------------|----------------------|
-------------------------|----------------------|----------------------|
-------------------------|----------------------|----------------------|
-------------------------|----------------------|----------------------|


                                                                           
--2----0-----0----7--5--|--7---------------2-3--|--5-----------------0----|
------------------------|-------5----5--5-------|-----------------3-----3-|
------------------------|-----------------------|--------5----------------|
------------------------|-----------------------|-------------------------|
------------------------|-----------------------|-------------------------|
------------------------|-----------------------|-------------------------|


                                                                            
--------5--5-----5------|---0--7----7--5--3--5---|--7-----0----0--0--2--3--|
----------------------3-|------------------------|-------------------------|
------------------------|------------------------|-------------------------|
------------------------|------------------------|-------------------------|
------------------------|------------------------|-------------------------|
------------------------|------------------------|-------------------------|


                                                                         
--5---------------0---2-|---0-------5---5---3---2-|-------2-----0-------|
--------3---------------|-------------------------|---------------------|
------------------------|-------------------------|---------------------|
------------------------|-------------------------|---------------------|
------------------------|-------------------------|---------------------|
------------------------|-------------------------|---------------------|


                                         
-------0------------|------------------||
--------------------|------------------||
--------------------|------------------||
--------------------|------------------||
--------------------|------------------||
--------------------|------------------||




Guitarra 2
Guitar Ar
                                                                          
E||------------------|--------------0----------|---0----------0----------|
B||------------------|--------0-----------0----|--------0----------0-----|
G||------------------|-----0-----0-----------0-|-----------0-----------0-|
D||------------------|--2----------------------|-------------------------|
A||------------------|-------------------------|-------------------------|
E||------------------|-------------------------|-------------------------|


                                                                                
------------0-------------|------------0-------------|--------------0----------|
---------0----------------|---------0-------------0--|--------0----------0-----|
------0-----------------0-|------0-------------0-----|-----0-----0----------0--|
---2-----------------2----|---2-----------2----------|--2----------------------|
------------------2-------|--------------------------|-------------------------|
---------------0----------|--------------------------|-------------------------|


                                                                               
--------------0----------|-------------------------|--------------------------|
--------1----------1-----|--------------3----------|--------0--1--0-----------|
-----0-----0----------0--|--------2-----------2----|-----0-----------2--0--2--|
-------------------------|--0--4-----4-----4-------|--------------------------|
--3----------------------|-------------------------|--3-----------------------|
-------------------------|-------------------------|--------------------------|


                                                                               
--------------------------|--------------------------|------------------------|
--------------0--------0--|--------0-----0--------0--|------------------------|
--------0-----------0-----|--------------------------|----------0----------2--|
-----2-----2-----2--------|-----4-----4--------4-----|-------2-------0--4-----|
--------------------------|--2--------------2--------|----3-------------------|
--0-----------------------|--------------------------|------------------------|


                                                                              
-----------------------|--------------------------|--------------------------|
-----------0-----------|--------0-----3-----------|--------------1-----------|
--------0--------------|--------------------4-----|--------0-----------0-----|
-----2-----------------|-----4-----4-----4-----4--|-----2-----2-----2-----2--|
-----------------------|--2-----------------------|--3-----------------------|
--0-----------0--------|--------------------------|--------------------------|


                                                      
--------------------------|--------------------------|
--------------3-----------|--------0--1--0-----------|
--------2-----------2-----|-----0-----------2--0--2--|
--0--4-----4-----4-----4--|--------------------------|
--------------------------|--3-----------------------|
--------------------------|--------------------------|


                                                      
--------------------------|--------------------------|
--------------1-----------|--------------0-----------|
--------0-----------0-----|--------------------------|
-----2-----2-----2-----2--|-----0--4--0-----0--4--0--|
--3-----------------------|--2-----------------------|
--------------------------|--------------------------|


                                                                                
--------------------------|--------------------------|--------------0----------|
-----------1--------------|--------------------------|--------0----------0-----|
--------0-----------2-----|-----------0--------0-----|-----0-----0----------0--|
-----2--------0--4-----4--|--------2-----2--------2--|--2----------------------|
--3-----------------------|-----2-----------2--------|-------------------------|
--------------------------|--0-----------------------|--0----------------------|


                                                                               
--------------0----------|-------------------------|--------------------------|
--------1----------1-----|--------------3----------|--------0--1--0-----------|
-----0-----0----------0--|--------2-----------2----|-----0-----------2--0--2--|
-------------------------|--0--4-----4-----4-------|--------------------------|
--3----------------------|-------------------------|--3-----------------------|
-------------------------|-------------------------|--------------------------|


                                                                               
--------------------------|--------------------------|------------------------|
--------------0--------0--|--------0-----0--------0--|------------------------|
--------0-----------0-----|--------------------------|----------0----------2--|
-----2-----2-----2--------|-----4-----4--------4-----|-------2-------0--4-----|
--------------------------|--2--------------2--------|----3-------------------|
--0-----------------------|--------------------------|------------------------|


                                                                              
-----------------------|--------------------------|--------------------------|
-----------0-----------|--------0-----3-----------|--------------1-----------|
--------0--------------|--------------------4-----|--------0-----------0-----|
-----2-----------------|-----4-----4-----4-----4--|-----2-----2-----2-----2--|
-----------------------|--2-----------------------|--3-----------------------|
--0-----------0--------|--------------------------|--------------------------|


                                                      
--------------------------|--------------------------|
--------------3-----------|--------0--1--0-----------|
--------2-----------2-----|-----0-----------2--0--2--|
--0--4-----4-----4-----4--|--------------------------|
--------------------------|--3-----------------------|
--------------------------|--------------------------|


                                                      
--------------------------|--------------------------|
--------------1-----------|--------------0-----------|
--------0-----------0-----|--------------------------|
-----2-----2-----2-----2--|-----0--4--0-----0--4--0--|
--3-----------------------|--2-----------------------|
--------------------------|--------------------------|


                                                      
--------------------------|--------------------0--2--|
-----------1--------------|--------------------------|
--------0-----------2-----|-----------0--------0-----|
-----2--------0--4-----4--|--------2-----2--------2--|
--3-----------------------|-----2-----------2--------|
--------------------------|--0-----------------------|


                                                      
--3-----------0-----------|--------------2-----------|
--------------------0-----|--------0-----------3-----|
--------0--------0-----0--|--------------------------|
-----------2--------------|-----4-----4-----4-----4--|
-----2--------------------|--2-----------------------|
--0-----------------------|--------------------------|


                                                      
--------------0-----------|--------------2--3--2-----|
--------1-----------1-----|--------3--------------3--|
-----0-----0-----0-----0--|-----2-----2--------------|
--------------------------|--0-----------------------|
--3-----------------------|--------------------------|
--------------------------|--------------------------|


                                                      
--------------0-----------|--------------2-----------|
--------1-----------1-----|--------0--3--------0-----|
-----0-----0-----0-----0--|--------------------------|
--------------------------|-----4-----------4-----4--|
--3-----------------------|--2-----------------------|
--------------------------|--------------------------|


                                                      
-----------0-----------0--|-----------0---------2----|
--------1-----------3-----|--------0----------0------|
-----0-----------2--------|-----0--------0----4---0--|
--------------0-----------|--2-----------------------|
--3-----------------------|--------------------------|
--------------------------|--------------------------|


                                                      
--3-----------0-----------|--------------2-----------|
--------------------0-----|--------0-----------3-----|
--------0--------0-----0--|--------------------------|
-----------2--------------|-----4-----4-----4-----4--|
-----2--------------------|--2-----------------------|
--0-----------------------|--------------------------|


                                                      
--------------0-----------|--------------2--3--2-----|
--------1-----------1-----|--------3--------------3--|
-----0-----0-----0-----0--|-----2-----2--------------|
--------------------------|--0-----------------------|
--3-----------------------|--------------------------|
--------------------------|--------------------------|


                                                      
--------------0-----------|--------------2-----------|
--------1-----------1-----|--------0--3--------0-----|
-----0-----0-----0-----0--|--------------------------|
--------------------------|-----4-----------4-----4--|
--3-----------------------|--2-----------------------|
--------------------------|--------------------------|


                                                                               
-----------0-----------0--|-----------0-------------|--------------0----------|
--------1-----------3-----|--------0----------0-----|--------0----------0-----|
-----0-----------2--------|-----0--------0-------0--|-----0-----0----------0--|
--------------0-----------|--2----------------------|--2----------------------|
--3-----------------------|-------------------------|-------------------------|
--------------------------|-------------------------|-------------------------|


                                                                               
--------------0----------|-------------------------|--------------------------|
--------1----------1-----|--------------3----------|--------0--1--0-----------|
-----0-----0----------0--|--------2-----------2----|-----0-----------2--0--2--|
-------------------------|--0--4-----4-----4-------|--------------------------|
--3----------------------|-------------------------|--3-----------------------|
-------------------------|-------------------------|--------------------------|


                                                       
--------------------------|---------------------------|
--------------0--------0--|---------0------3----------|
--------0-----------0-----|------------------------4--|
-----2-----2-----2--------|-----4-------4------4------|
--------------------------|--2------------------------|
--0-----------------------|---------------------------|


                                                          
---------------0----------|---------------0---------0----|
------------1-------------|-----3-------0----------------|
--------0-----------------|--2--------------------0------|
--4----------------0--4---|------------------------------|
--4--3--------------------|-----------2-----------0------|
--------------------------|---------0-6---------0--------|


                                           
---------0------------|------------------||
----------------------|------------------||
----------------------|------------------||
-----0-0--------------|------------------||
-------2--------------|------------------||
-----0-7--------------|------------------||
comments
print report bad tab
I want to post or [tab]
guest
You may want to rate the tab now too:
select rating
Please do not post tabs as comments. Select "correction" instead!