Oops, an error
Loading. Please wait.

Telepathy Tab

2,941 views 1 this week
no commentswrite comment
1 2 3 4 5
excellent!
x 4
Autoscroll
+/-
esc
set tempo
stop
Contributor
Difficulty
intermediate
Hey! There's an official Ultimate Guitar app which is ideal
for learning songs when you're away from computer. Get the app
WARNING: You are trying to view
                                    content from Ultimate-Guitar.com
                                    in an unauthorized application,
                                    which is prohibited.

                                    Please use an official Ultimate
                                    Guitar Tabs application for iPhone,
                                    iPad or Android to access legitimate
                                    chords, guitar, bass, and drum tabs
                                    from Ultimate-Guitar.com database.

                                    Type "ultimate guitar tabs" in Apple
                                    App Store's or Android Market's
                                    search to find the application.
-----------------------------------------------------------------------------
                           TELEPATHY - Miles Kane
-----------------------------------------------------------------------------
Tabbed by: Luka Racić
Email: luka.rackom@gmail.com

Tuning: Standard

A great tune from Miles' debut solo album, not hard to play either. The whole
thing basically revolves around the key of F#m.

Also, use a reverb/delay pedal and the whammy bar for vibrato extensively.
This is Miles, after all.

I've written the whole song divided into bars of equal length and tried to
map the timing as well (the song's in 4/4), so the time above every bar
showing the second in which the bar starts is not exact, but I'd say it's as
accurate as humanly possible.

If you've noticed a mistake or have any kind of comment/correction (regarding
the tab, chords, timing, lyrics, whatever), please do post it below.

Cheers.


Intro:

0:03
e|--9-----------------------------------------------------------------------|
B|-10-----------------------------------------------------------------------|
G|-11-----------------------------------------------------------------------|
D|-11-----------------------------------------------------------------------|
A|--9-----------------------------------------------------------------------|
E|--------------------------------------------------------------------------|

   1      and        2        and       3       and        4       and       


0:06
e|---------------------------------------------------------8----------------|
B|---------------------------------------------------------9----------------|
G|--------------------------------------------------------10----------------|
D|--------------------------------------------------------10----------------|
A|---------------------------------------------------------8----------------|
E|--------------------------------------------------------------------------|

   1      and        2        and       3       and        4       and      
 

0:10
e|--9-----------------------------------------------------------------------|
B|-10-----------------------------------------------------------------------|
G|-11-----------------------------------------------------------------------|
D|-11-----------------------------------------------------------------------|
A|--9-----------------------------------------------------------------------|
E|--------------------------------------------------------------------------|

   1       and       2        and       3       and        4       and       


0:13
e|--------------------------------------------------------------------------|
B|--------------------------------------------------------------------------|
G|--------------------------------------------------------------------------|
D|--------------------------------------------------------------------------|
A|--------------------------------------------------------------------------|
E|--------------------------------------------------------------------------|

   1      and        2        and       3       and        4       and       


0:16
e|--------------------------------------------------------------------------|
B|--------------------------------------------------------------------------|
G|--------------------------------------------------------------------------|
D|--------------------------------------------------------------------------|
A|-----------------------------4--------------------------------------------|
E|-2-----------------5------------------------------------------------------|

   1      and        2        and       3       and        4       and       


0:20
e|--------------------------------------------------------------------------|
B|--------------------------------------------------------------------------|
G|--------------------------------------------------------------------------|
D|--------------------------------------------------------------------------|
A|---------------------------------------------------------2b3r2------------|
E|--------------------------------------------------------------------------|

   1      and        2        and       3       and        4       and       


0:23
e|--------------------------------------------------------------------------|
B|--------------------------------------------------------------------------|
G|--------------------------------------------------------------------------|
D|--------------------------------------------------------------------------|
A|--------------------------------------------------------------------------|
E|---------------------------------------------------------5----------------|

   1      and        2        and       3       and        4       and       


0:26
e|--------------------------------------------------------------------------|
B|--------------------------------------------------------------------------|
G|--------------------------------------------------------------------------|
D|--------------------------------------------------------------------------|
A|--------------------------------------------------------------------------|
E|-2------------------------------------------------------------------------|

   1      and        2        and       3       and        4       and       


Pre-Verse 1:

0:29
e|--------------------------------------------------------------------------|
B|--------------------------------------------------------------------------|
G|--------------------------------------------------------------------------|
D|--------------------------------------------------------------------------|
A|-----------------------------4---------------------------2b3r2------------|
E|-2-----------------5----------------------------------------------5-------|

   1      and        2        and       3       and        4       and       


0:32
e|----------------2------------8--------9-----------------------------------|
B|----------------2------------9-------10-----------------------------------|
G|----------------2-----------10-------11-----------------------------------|
D|----------------4-----------10-------11-----------------------------------|
A|----------------4------------8--------9-----------------------------------|
E|-2--------------2---------------------------------------------------------|

   1      and        2        and       3       and        4       and       


0:36
e|--------------------------------------------------------------------------|
B|--------------------------------------------------------------------------|
G|--------------------------------------------------------------------------|
D|--------------------------------------------------------------------------|
A|-----------------------------4---------------------------2b3r2------------|
E|-2-----------------5----------------------------------------------5-------|

   1      and        2        and       3       and        4       and       


0:38
e|----------------2------------8--------9-----------------------------------|
B|----------------2------------9-------10-----------------------------------|
G|----------------2-----------10-------11-----------------------------------|
D|----------------4-----------10-------11-----------------------------------|
A|----------------4------------8--------9-----------------------------------|
E|-2--------------2---------------------------------------------------------|

   1      and        2        and       3       and        4       and       


Verse 1:

0:41 - "I can feel you searching 'round my brain"
e|-2------------------------------------------------------------------------|
B|-2------------------------------------------------------------------------|
G|-2------------------------------------------------------------------------|
D|-4------------------------------------------------------------------------|
A|-4------------------------------------------------------------------------|
E|-2------------------------------------------------------------------------|

   1      and        2        and       3       and        4       and       


0:45
e|--------------------------------------------------------------------------|
B|--------------------------------------------------------------------------|
G|--------------------------------------------------------------------------|
D|--------------------------------------------------------------------------|
A|--------------------------------------------------------------------------|
E|--------------------------------------------------------------------------|

   1      and        2        and       3       and        4       and       



0:48 - "Looking for a way to make a wave"
e|-(2)----------------------------------------------------------------------|
B|-(2)----------------------------------------------------------------------|
G|-(2)----------------------------------------------------------------------|
D|-(4)----------------------------------------------------------------------|
A|-(4)----------------------------------------------------------------------|
E|-(2)----------------------------------------------------------------------|

   1      and        2        and       3       and        4       and       


0:52
e|--------------------------------------------------------------------------|
B|--------------------------------------------------------------------------|
G|--------------------------------------------------------------------------|
D|--------------------------------------------------------------------------|
A|--------------------------------------------------------------------------|
E|--------------------------------------------------------------------------|

   1      and        2        and       3       and        4       and       


0:55 - "Floating out and in"
e|-2------------------------------------------------------------------------|
B|-2------------------------------------------------------------------------|
G|-2------------------------------------------------------------------------|
D|-4------------------------------------------------------------------------|
A|-4------------------------------------------------------------------------|
E|-2------------------------------------------------------------------------|

   1      and        2        and       3       and        4       and       


0:58 - "And in and out again"
e|--------------------------------------------------------------------------|
B|--------------------------------------------------------------------------|
G|--------------------------------------------------------------------------|
D|--------------------------------------------------------------------------|
A|--------------------------------------------------------------------------|
E|--------------------------------------------------------------------------|

   1      and        2        and       3       and        4       and       


1:01 - "'Till our falling thoughts cascade"
e|-(2)----------------------------------------------------------------------|
B|-(2)----------------------------------------------------------------------|
G|-(2)----------------------------------------------------------------------|
D|-(4)----------------------------------------------------------------------|
A|-(4)----------------------------------------------------------------------|
E|-(2)----------------------------------------------------------------------|

   1      and        2        and       3       and        4       and       


1:04 - "Together"
e|--------------------------------------------------------------------------|
B|--------------------------------------------------------------------------|
G|--------------------------------------------------------------------------|
D|--------------------------------------------------------------------------|
A|---------------------------------------------------------2--------2-------|
E|--------------------------------------------------------------------------|

   1      and        2        and       3       and        4       and      


Chorus 1:

1:07 - "Telepathy... To the rescue"
e|-2------------------------------------4-----------------------------------|
B|-3------------------------------------6-----------------------------------|
G|-4------------------------------------6-----------------------------------|
D|-4------------------------------------6-----------------------------------|
A|-2------------------------------------4-----------------------------------|
E|--------------------------------------------------------------------------|

   1      and        2        and       3       and        4       and       


1:10 - "Just look at me... And I won't let you~"
e|-2------------------------------------2-----------------------------------|
B|-2------------------------------------3-----------------------------------|
G|-2------------------------------------2-----------------------------------|
D|-4------------------------------------0-----------------------------------|
A|-4------------------------------------------------------------------------|
E|-2------------------------------------------------------------------------|

   1      and        2        and       3       and        4       and       


1:13 - "~go... I won't let you..."
e|-2------------------------------------5-----------------------------------|
B|-3------------------------------------6-----------------------------------|
G|-4------------------------------------7-----------------------------------|
D|-4------------------------------------7-----------------------------------|
A|-2------------------------------------5-----------------------------------|
E|--------------------------------------------------------------------------|

   1      and        2        and       3...       (everything stops)  


Pre-verse 2:

1:18 - "Go."
e|--------------------------------------------------------------------------|
B|--------------------------------------------------------------------------|
G|--------------------------------------------------------------------------|
D|--------------------------------------------------------------------------|
A|-----------------------------4---------------------------2b3r2------------|
E|-2-----------------5----------------------------------------------5-------|

   1      and        2        and       3       and        4       and       


0:21
e|----------------2------------8--------9-----------------------------------|
B|----------------2------------9-------10-----------------------------------|
G|----------------2-----------10-------11-----------------------------------|
D|----------------4-----------10-------11-----------------------------------|
A|----------------4------------8--------9-----------------------------------|
E|-2--------------2---------------------------------------------------------|

   1      and        2        and       3       and        4       and       


0:24
e|--------------------------------------------------------------------------|
B|--------------------------------------------------------------------------|
G|--------------------------------------------------------------------------|
D|--------------------------------------------------------------------------|
A|-----------------------------4---------------------------2b3r2------------|
E|-2-----------------5----------------------------------------------5-------|

   1      and        2        and       3       and        4       and       


0:28
e|----------------2------------8--------9-----------------------------------|
B|----------------2------------9-------10-----------------------------------|
G|----------------2-----------10-------11-----------------------------------|
D|----------------4-----------10-------11-----------------------------------|
A|----------------4------------8--------9-----------------------------------|
E|-2--------------2---------------------------------------------------------|

   1      and        2        and       3       and        4       and       


Verse 2:

1:30 - "I can see you making little flakes"
e|-2------------------------------------------------------------------------|
B|-2------------------------------------------------------------------------|
G|-2------------------------------------------------------------------------|
D|-4------------------------------------------------------------------------|
A|-4------------------------------------------------------------------------|
E|-2------------------------------------------------------------------------|

   1      and        2        and       3       and        4       and       


1:33
e|--------------------------------------------------------------------------|
B|--------------------------------------------------------------------------|
G|--------------------------------------------------------------------------|
D|--------------------------------------------------------------------------|
A|--------------------------------------------------------------------------|
E|--------------------------------------------------------------------------|

   1      and        2        and       3       and        4       and       



1:37 - "All along the path to guide away"
e|--------------------------------------------------------------------------|
B|--------------------------------------------------------------------------|
G|--------------------------------------------------------------------------|
D|--------------------------------------------------------------------------|
A|--------------------------------------------------------------------------|
E|--------------------------------------------------------------------------|

   1      and        2        and       3       and        4       and       


1:40
e|--------------------------------------------------------------------------|
B|--------------------------------------------------------------------------|
G|--------------------------------------------------------------------------|
D|--------------------------------------------------------------------------|
A|--------------------------------------------------------------------------|
E|--------------------------------------------------------------------------|

   1      and        2        and       3       and        4       and       


1:43 - "Floating out and in"
e|-2------------------------------------------------------------------------|
B|-2------------------------------------------------------------------------|
G|-2------------------------------------------------------------------------|
D|-4------------------------------------------------------------------------|
A|-4------------------------------------------------------------------------|
E|-2------------------------------------------------------------------------|

   1      and        2        and       3       and        4       and       


1:46 - "And in and out again"
e|--------------------------------------------------------------------------|
B|--------------------------------------------------------------------------|
G|--------------------------------------------------------------------------|
D|--------------------------------------------------------------------------|
A|--------------------------------------------------------------------------|
E|--------------------------------------------------------------------------|

   1      and        2        and       3       and        4       and       


1:49 - "'Till our falling thoughts cascade"
e|-(2)----------------------------------------------------------------------|
B|-(2)----------------------------------------------------------------------|
G|-(2)----------------------------------------------------------------------|
D|-(4)----------------------------------------------------------------------|
A|-(4)----------------------------------------------------------------------|
E|-(2)----------------------------------------------------------------------|

   1      and        2        and       3       and        4       and       


1:53 - "Together"
e|--------------------------------------------------------------------------|
B|--------------------------------------------------------------------------|
G|--------------------------------------------------------------------------|
D|--------------------------------------------------------------------------|
A|---------------------------------------------------------2--------2-------|
E|--------------------------------------------------------------------------|

   1      and        2        and       3       and        4       and      


Chorus 2:

1:56 - "Telepathy... To the rescue"
e|-2------------------------------------4-----------------------------------|
B|-3------------------------------------6-----------------------------------|
G|-4------------------------------------6-----------------------------------|
D|-4------------------------------------6-----------------------------------|
A|-2------------------------------------4-----------------------------------|
E|--------------------------------------------------------------------------|

   1      and        2        and       3       and        4       and       


1:59 - "Just look at me... And I won't let you~"
e|-2------------------------------------2-----------------------------------|
B|-2------------------------------------3-----------------------------------|
G|-2------------------------------------2-----------------------------------|
D|-4------------------------------------0-----------------------------------|
A|-4------------------------------------------------------------------------|
E|-2------------------------------------------------------------------------|

   1      and        2        and       3       and        4       and       


2:02 - "~go... I won't let you..."
e|-2------------------------------------5-----------------------------------|
B|-3------------------------------------6-----------------------------------|
G|-4------------------------------------7-----------------------------------|
D|-4------------------------------------7-----------------------------------|
A|-2------------------------------------5-----------------------------------|
E|--------------------------------------------------------------------------|

   1      and        2        and       3...       (everything stops)        


Solo:

2:06 - "Go."
e|--------------------------------------------------------------------------|
B|---10b11r10--------7-------------------------------------7----------------|
G|-----------------------------------------7-----5---7---------7----5-------|
D|--------------------------------------------------------------------------|
A|--------------------------------------------------------------------------|
E|--------------------------------------------------------------------------|

   1      and        2        and       3       and        4       and       


2:09
e|--------------------------------------------------------------------------|
B|---10b11r10--------7-------------------------------------7----------------|
G|-----------------------------------------7-----5---7---------7------------|
D|--------------------------------------------------------------------------|
A|--------------------------------------------------------------------------|
E|--------------------------------------------------------------------------|

   1      and        2        and       3       and        4       and       


2:13
e|--------------------------------------------------------------------------|
B|--------------------------------------------------------------------------|
G|------------------------------4---4---4---5----5----5----5----4-----------|
D|-4-------------4---4-----------------------------------------------7------|
A|--------------------------------------------------------------------------|
E|--------------------------------------------------------------------------|

   1      and        2        and       3       and        4       and       


2:15
e|--------------------------------------------------------------------------|
B|--------------------------------------------------------------------------|
G|------------------------------4---4---4---5----5----5----4b5r4------------|
D|-4-------------4---4-----------------------------------------------7------|
A|--------------------------------------------------------------------------|
E|--------------------------------------------------------------------------|

   1      and        2        and       3       and        4       and       


2:18
e|--------------------------------------------------------------------------|
B|--------------------------------------------------------------------------|
G|------------------------------4---4---4---5----5----5----5---4---------5--|
D|-4-------------4---4------------------------------------------------------|
A|--------------------------------------------------------------------------|
E|--------------------------------------------------------------------------|

   1      and        2        and       3       and        4       and       


2:22
e|--------------------------------------------------------------------------|
B|--------------------------------------------------------------------------|
G|--------------4--------------4------------4--------------4/6--------------|
D|-4-------7--------------7-------------7--------------7--------------------|
A|--------------------------------------------------------------------------|
E|--------------------------------------------------------------------------|

   1      and        2        and       3       and        4       and       


2:25
e|-14------------17------------19-----------20--------20---20--19---17------|
B|--------------------------------------------------------------------------|
G|--------------------------------------------------------------------------|
D|--------------------------------------------------------------------------|
A|--------------------------------------------------------------------------|
E|--------------------------------------------------------------------------|

   1      and        2        and       3       and        4       and       


2:28
e|-14------------17------------19-----------20--------20---20--19---17------|
B|--------------------------------------------------------------------------|
G|--------------------------------------------------------------------------|
D|--------------------------------------------------------------------------|
A|--------------------------------------------------------------------------|
E|--------------------------------------------------------------------------|

   1      and        2        and       3       and        4       and       


2:31
e|-14------------17------------19-----------20--------20---20--19-----------|
B|--------------------------------------------------------------------------|
G|--------------------------------------------------------------------------|
D|--------------------------------------------------------------------------|
A|--------------------------------------------------------------------------|
E|--------------------------------------------------------------------------|

   1      and        2        and       3       and        4       and       


2:35
e|-19------20---20---20---20---19-------19-------20---20---20---20----------|
B|--------------------------------------------------------------------------|
G|--------------------------------------------------------------------------|
D|--------------------------------------------------------------------------|
A|--------------------------------------------------------------------------|
E|--------------------------------------------------------------------------|

   1      and        2        and       3       and        4       and       


Chorus 3:

2:37 - "Telepathy... To the rescue"
e|-2------------------------------------4-----------------------------------|
B|-3------------------------------------6-----------------------------------|
G|-4------------------------------------6-----------------------------------|
D|-4------------------------------------6-----------------------------------|
A|-2------------------------------------4-----------------------------------|
E|--------------------------------------------------------------------------|

   1      and        2        and       3       and        4       and       


2:41 - "Just look at me... And I won't let you~"
e|-2------------------------------------2-----------------------------------|
B|-2------------------------------------3-----------------------------------|
G|-2------------------------------------2-----------------------------------|
D|-4------------------------------------0-----------------------------------|
A|-4------------------------------------------------------------------------|
E|-2------------------------------------------------------------------------|

   1      and        2        and       3       and        4       and       


2:44 - "~go... I won't let you..."
e|-2------------------------------------5-----------------------------------|
B|-3------------------------------------6-----------------------------------|
G|-4------------------------------------7-----------------------------------|
D|-4------------------------------------7-----------------------------------|
A|-2------------------------------------5-----------------------------------|
E|--------------------------------------------------------------------------|

   1      and        2        and       3...       (everything stops)        


Outro:

2:49
e|--------------------------------------------------------------------------|
B|--------------------------------------------------------------------------|
G|--------------------------------------------------------------------------|
D|--------------------------------------------------------------------------|
A|-----------------------------4---------------------------2b3r2------------|
E|-2-----------------5----------------------------------------------5-------|

   1      and        2        and       3       and        4       and       


2:52
e|--------------------------------------------------------------------------|
B|--------------------------------------------------------------------------|
G|--------------------------------------------------------------------------|
D|--------------------------------------------------------------------------|
A|--------------------------------------------------------------------------|
E|-2------------------------------------------------------------------------|

   1      and        2        and       3       and        4       and       


2:55
e|--------------------------------------------------------------------------|
B|--------------------------------------------------------------------------|
G|--------------------------------------------------------------------------|
D|--------------------------------------------------------------------------|
A|-----------------------------4---------------------------2b3r2------------|
E|-2-----------------5----------------------------------------------5-------|

   1      and        2        and       3       and        4       and       


2:58
e|--------------------------------------9-----------------------------------|
B|-------------------------------------10-----------------------------------|
G|-------------------------------------11-----------------------------------|
D|-------------------------------------11-----------------------------------|
A|--------------------------------------9-----------------------------------|
E|-2------------------------------------------------------------------------|

   1      and        2        and       3...                


End.


************************************

| /   slide up
| \   slide down
| h   hammer-on
| p   pull-off
| ~   vibrato
| +   harmonic
| x   Mute note
| b   Bend
| pb  Pre-bend
| br  Bend release
| pbr Pre-bend release
| brb Bend release bend

************************************
comments
print report bad tab
I want to post or [tab]
guest
You may want to rate the tab now too:
select rating
Please do not post tabs as comments. Select "correction" instead!